  0
SECTION
  2
HEADER
  9
$ACADVER
  1
AC1015
  9
$ACADMAINTVER
 70
     6
  9
$DWGCODEPAGE
  3
ANSI_1254
  9
$INSBASE
 10
0.0
 20
0.0
 30
0.0
  9
$EXTMIN
 10
0.0
 20
0.0
 30
0.0
  9
$EXTMAX
 10
279.4
 20
215.9
 30
0.0
  9
$LIMMIN
 10
0.0
 20
0.0
  9
$LIMMAX
 10
279.4
 20
215.9
  9
$ORTHOMODE
 70
     0
  9
$REGENMODE
 70
     1
  9
$FILLMODE
 70
     1
  9
$QTEXTMODE
 70
     0
  9
$MIRRTEXT
 70
     1
  9
$LTSCALE
 40
1.0
  9
$ATTMODE
 70
     1
  9
$TEXTSIZE
 40
3.5
  9
$TRACEWID
 40
1.0
  9
$TEXTSTYLE
  7
Standard
  9
$CLAYER
  8
0
  9
$CELTYPE
  6
ByLayer
  9
$CECOLOR
 62
   256
  9
$CELTSCALE
 40
1.0
  9
$DISPSILH
 70
     0
  9
$DIMSCALE
 40
1.0
  9
$DIMASZ
 40
3.5
  9
$DIMEXO
 40
1.0
  9
$DIMDLI
 40
3.75
  9
$DIMRND
 40
0.0
  9
$DIMDLE
 40
0.0
  9
$DIMEXE
 40
1.0
  9
$DIMTP
 40
0.0
  9
$DIMTM
 40
0.0
  9
$DIMTXT
 40
3.5
  9
$DIMCEN
 40
2.5
  9
$DIMTSZ
 40
0.0
  9
$DIMTOL
 70
     0
  9
$DIMLIM
 70
     0
  9
$DIMTIH
 70
     1
  9
$DIMTOH
 70
     1
  9
$DIMSE1
 70
     0
  9
$DIMSE2
 70
     0
  9
$DIMTAD
 70
     1
  9
$DIMZIN
 70
     0
  9
$DIMBLK
  1

  9
$DIMASO
 70
     1
  9
$DIMSHO
 70
     1
  9
$DIMPOST
  1

  9
$DIMAPOST
  1

  9
$DIMALT
 70
     0
  9
$DIMALTD
 70
     3
  9
$DIMALTF
 40
0.0393700787
  9
$DIMLFAC
 40
1.0
  9
$DIMTOFL
 70
     1
  9
$DIMTVP
 40
0.0
  9
$DIMTIX
 70
     0
  9
$DIMSOXD
 70
     0
  9
$DIMSAH
 70
     0
  9
$DIMBLK1
  1

  9
$DIMBLK2
  1

  9
$DIMSTYLE
  2
ISO-25
  9
$DIMCLRD
 70
     0
  9
$DIMCLRE
 70
     0
  9
$DIMCLRT
 70
     0
  9
$DIMTFAC
 40
1.0
  9
$DIMGAP
 40
1.524
  9
$DIMJUST
 70
     0
  9
$DIMSD1
 70
     0
  9
$DIMSD2
 70
     0
  9
$DIMTOLJ
 70
     0
  9
$DIMTZIN
 70
     0
  9
$DIMALTZ
 70
     0
  9
$DIMALTTZ
 70
     0
  9
$DIMUPT
 70
     0
  9
$DIMDEC
 70
     2
  9
$DIMTDEC
 70
     2
  9
$DIMALTU
 70
     2
  9
$DIMALTTD
 70
     3
  9
$DIMTXSTY
  7
Standard
  9
$DIMAUNIT
 70
     0
  9
$DIMADEC
 70
     2
  9
$DIMALTRND
 40
0.0
  9
$DIMAZIN
 70
     0
  9
$DIMDSEP
 70
    44
  9
$DIMATFIT
 70
     3
  9
$DIMFRAC
 70
     0
  9
$DIMLDRBLK
  1

  9
$DIMLUNIT
 70
     2
  9
$DIMLWD
 70
    -2
  9
$DIMLWE
 70
    -2
  9
$DIMTMOVE
 70
     0
  9
$LUNITS
 70
     2
  9
$LUPREC
 70
     2
  9
$SKETCHINC
 40
1.0
  9
$FILLETRAD
 40
10.0
  9
$AUNITS
 70
     0
  9
$AUPREC
 70
     2
  9
$MENU
  1
.
  9
$ELEVATION
 40
0.0
  9
$PELEVATION
 40
0.0
  9
$THICKNESS
 40
0.0
  9
$LIMCHECK
 70
     0
  9
$CHAMFERA
 40
0.0
  9
$CHAMFERB
 40
0.0
  9
$CHAMFERC
 40
0.0
  9
$CHAMFERD
 40
0.0
  9
$SKPOLY
 70
     0
  9
$TDCREATE
 40
2459741.607918796
  9
$TDUCREATE
 40
2459741.482918796
  9
$TDUPDATE
 40
2459741.60791897
  9
$TDUUPDATE
 40
2459741.48291897
  9
$TDINDWG
 40
0.0000000116
  9
$TDUSRTIMER
 40
0.0000000116
  9
$USRTIMER
 70
     1
  9
$ANGBASE
 50
0.0
  9
$ANGDIR
 70
     0
  9
$PDMODE
 70
     0
  9
$PDSIZE
 40
-1.0
  9
$PLINEWID
 40
0.0
  9
$SPLFRAME
 70
     0
  9
$SPLINETYPE
 70
     6
  9
$SPLINESEGS
 70
     8
  9
$HANDSEED
  5
103
  9
$SURFTAB1
 70
     6
  9
$SURFTAB2
 70
     6
  9
$SURFTYPE
 70
     6
  9
$SURFU
 70
     6
  9
$SURFV
 70
     6
  9
$UCSBASE
  2

  9
$UCSNAME
  2

  9
$UCSORG
 10
0.0
 20
0.0
 30
0.0
  9
$UCSXDIR
 10
1.0
 20
0.0
 30
0.0
  9
$UCSYDIR
 10
0.0
 20
1.0
 30
0.0
  9
$UCSORTHOREF
  2

  9
$UCSORTHOVIEW
 70
     0
  9
$UCSORGTOP
 10
0.0
 20
0.0
 30
0.0
  9
$UCSORGBOTTOM
 10
0.0
 20
0.0
 30
0.0
  9
$UCSORGLEFT
 10
0.0
 20
0.0
 30
0.0
  9
$UCSORGRIGHT
 10
0.0
 20
0.0
 30
0.0
  9
$UCSORGFRONT
 10
0.0
 20
0.0
 30
0.0
  9
$UCSORGBACK
 10
0.0
 20
0.0
 30
0.0
  9
$PUCSBASE
  2

  9
$PUCSNAME
  2

  9
$PUCSORG
 10
0.0
 20
0.0
 30
0.0
  9
$PUCSXDIR
 10
1.0
 20
0.0
 30
0.0
  9
$PUCSYDIR
 10
0.0
 20
1.0
 30
0.0
  9
$PUCSORTHOREF
  2

  9
$PUCSORTHOVIEW
 70
     0
  9
$PUCSORGTOP
 10
0.0
 20
0.0
 30
0.0
  9
$PUCSORGBOTTOM
 10
0.0
 20
0.0
 30
0.0
  9
$PUCSORGLEFT
 10
0.0
 20
0.0
 30
0.0
  9
$PUCSORGRIGHT
 10
0.0
 20
0.0
 30
0.0
  9
$PUCSORGFRONT
 10
0.0
 20
0.0
 30
0.0
  9
$PUCSORGBACK
 10
0.0
 20
0.0
 30
0.0
  9
$USERI1
 70
     0
  9
$USERI2
 70
     0
  9
$USERI3
 70
     0
  9
$USERI4
 70
     0
  9
$USERI5
 70
     0
  9
$USERR1
 40
0.0
  9
$USERR2
 40
0.0
  9
$USERR3
 40
0.0
  9
$USERR4
 40
0.0
  9
$USERR5
 40
0.0
  9
$WORLDVIEW
 70
     1
  9
$SHADEDGE
 70
     3
  9
$SHADEDIF
 70
    70
  9
$TILEMODE
 70
     1
  9
$MAXACTVP
 70
    64
  9
$PINSBASE
 10
0.0
 20
0.0
 30
0.0
  9
$PLIMCHECK
 70
     0
  9
$PEXTMIN
 10
1.0000000000E+20
 20
1.0000000000E+20
 30
1.0000000000E+20
  9
$PEXTMAX
 10
-1.0000000000E+20
 20
-1.0000000000E+20
 30
-1.0000000000E+20
  9
$PLIMMIN
 10
0.0
 20
0.0
  9
$PLIMMAX
 10
420.0
 20
297.0
  9
$UNITMODE
 70
     0
  9
$VISRETAIN
 70
     1
  9
$PLINEGEN
 70
     0
  9
$PSLTSCALE
 70
     1
  9
$TREEDEPTH
 70
  3020
  9
$CMLSTYLE
  2
Standard
  9
$CMLJUST
 70
     0
  9
$CMLSCALE
 40
20.0
  9
$PROXYGRAPHICS
 70
     1
  9
$MEASUREMENT
 70
     1
  9
$CELWEIGHT
370
    -1
  9
$ENDCAPS
280
     0
  9
$JOINSTYLE
280
     0
  9
$LWDISPLAY
290
     1
  9
$INSUNITS
 70
     4
  9
$HYPERLINKBASE
  1

  9
$STYLESHEET
  1

  9
$XEDIT
290
     1
  9
$CEPSNTYPE
380
     0
  9
$PSTYLEMODE
290
     1
  9
$FINGERPRINTGUID
  2
{7e154ffe-6aa4-48b7-9013-79ab9970e097}
  9
$VERSIONGUID
  2
{FAEB1C32-E019-11D5-929B-00C0DF256EC4}
  9
$EXTNAMES
290
     1
  9
$PSVPSCALE
 40
0.0
  9
$OLESTARTUP
290
     0
  0
ENDSEC
  0
SECTION
  2
CLASSES
  0
CLASS
  1
ACDBDICTIONARYWDFLT
  2
AcDbDictionaryWithDefault
  3
ObjectDBX Classes
 90
        0
280
     0
281
     0
  0
CLASS
  1
VISUALSTYLE
  2
AcDbVisualStyle
  3
ObjectDBX Classes
 90
     4095
280
     0
281
     0
  0
CLASS
  1
MATERIAL
  2
AcDbMaterial
  3
ObjectDBX Classes
 90
     1153
280
     0
281
     0
  0
CLASS
  1
SCALE
  2
AcDbScale
  3
ObjectDBX Classes
 90
     1153
280
     0
281
     0
  0
CLASS
  1
TABLESTYLE
  2
AcDbTableStyle
  3
ObjectDBX Classes
 90
     4095
280
     0
281
     0
  0
CLASS
  1
MLEADERSTYLE
  2
AcDbMLeaderStyle
  3
ACDB_MLEADERSTYLE_CLASS
 90
     4095
280
     0
281
     0
  0
CLASS
  1
SUN
  2
AcDbSun
  3
SCENEOE
 90
     1153
280
     0
281
     0
  0
CLASS
  1
ACDBPLACEHOLDER
  2
AcDbPlaceHolder
  3
ObjectDBX Classes
 90
        0
280
     0
281
     0
  0
CLASS
  1
LAYOUT
  2
AcDbLayout
  3
ObjectDBX Classes
 90
        0
280
     0
281
     0
  0
ENDSEC
  0
SECTION
  2
TABLES
  0
TABLE
  2
VPORT
  5
8
330
0
100
AcDbSymbolTable
 70
     1
  0
VPORT
  5
29
330
8
100
AcDbSymbolTableRecord
100
AcDbViewportTableRecord
  2
*Active
 70
     0
 10
0.0
 20
0.0
 11
1.0
 21
1.0
 12
139.7
 22
107.95
 13
0.0
 23
0.0
 14
10.0
 24
10.0
 15
10.0
 25
10.0
 16
0.0
 26
0.0
 36
1.0
 17
0.0
 27
0.0
 37
0.0
 40
215.9
 41
1.2941176471
 42
50.0
 43
0.0
 44
0.0
 50
0.0
 51
0.0
 71
     0
 72
  2000
 73
     1
 74
     3
 75
     0
 76
     0
 77
     0
 78
     0
281
     0
 65
     1
110
0.0
120
0.0
130
0.0
111
1.0
121
0.0
131
0.0
112
0.0
122
1.0
132
0.0
 79
     0
146
0.0
  0
ENDTAB
  0
TABLE
  2
LTYPE
  5
5
330
0
100
AcDbSymbolTable
 70
     6
  0
LTYPE
  5
14
330
5
100
AcDbSymbolTableRecord
100
AcDbLinetypeTableRecord
  2
ByBlock
 70
     0
  3

 72
    65
 73
     0
 40
0.0
  0
LTYPE
  5
15
330
5
100
AcDbSymbolTableRecord
100
AcDbLinetypeTableRecord
  2
ByLayer
 70
     0
  3

 72
    65
 73
     0
 40
0.0
  0
LTYPE
  5
16
330
5
100
AcDbSymbolTableRecord
100
AcDbLinetypeTableRecord
  2
Continuous
 70
     0
  3
Solid line
 72
    65
 73
     0
 40
0.0
  0
LTYPE
  5
6E
330
5
100
AcDbSymbolTableRecord
100
AcDbLinetypeTableRecord
  2
HIDDEN
 70
     0
  3
Hidden __ __ __ __ __ __ __ __ __ __ __ __ __ __
 72
    65
 73
     2
 40
1.905
 49
1.27
 74
     0
 49
-0.635
 74
     0
  0
LTYPE
  5
6F
330
5
100
AcDbSymbolTableRecord
100
AcDbLinetypeTableRecord
  2
PHANTOM
 70
     0
  3
Phantom ______  __  __  ______  __  __  ______
 72
    65
 73
     6
 40
12.7
 49
6.35
 74
     0
 49
-1.27
 74
     0
 49
1.27
 74
     0
 49
-1.27
 74
     0
 49
1.27
 74
     0
 49
-1.27
 74
     0
  0
LTYPE
  5
70
330
5
100
AcDbSymbolTableRecord
100
AcDbLinetypeTableRecord
  2
CENTER
 70
     0
  3
Center ____ _ ____ _ ____ _ ____ _ ____ _ ____
 72
    65
 73
     4
 40
10.16
 49
6.35
 74
     0
 49
-1.27
 74
     0
 49
1.27
 74
     0
 49
-1.27
 74
     0
  0
LTYPE
  5
71
330
5
100
AcDbSymbolTableRecord
100
AcDbLinetypeTableRecord
  2
CENTERX2
 70
     0
  3
Center (2x) ________  __  ________  __  _____
 72
    65
 73
     4
 40
20.32
 49
12.7
 74
     0
 49
-2.54
 74
     0
 49
2.54
 74
     0
 49
-2.54
 74
     0
  0
LTYPE
  5
72
330
5
100
AcDbSymbolTableRecord
100
AcDbLinetypeTableRecord
  2
DOT2
 70
     0
  3
Dot (.5x) ........................................
 72
    65
 73
     2
 40
0.635
 49
0.0
 74
     0
 49
-0.635
 74
     0
  0
ENDTAB
  0
TABLE
  2
LAYER
  5
2
330
0
100
AcDbSymbolTable
 70
    17
  0
LAYER
  5
10
330
2
100
AcDbSymbolTableRecord
100
AcDbLayerTableRecord
  2
0
 70
     0
 62
     7
  6
Continuous
370
    -3
390
F
  0
LAYER
  5
73
330
2
100
AcDbSymbolTableRecord
100
AcDbLayerTableRecord
  2
FORMAT
 70
     0
 62
     7
  6
Continuous
370
    -3
390
F
  0
LAYER
  5
74
330
2
100
AcDbSymbolTableRecord
100
AcDbLayerTableRecord
  2
YARDIMCI_GEOMETRI
 70
     0
 62
    -6
  6
Continuous
290
     0
370
    -3
390
F
  0
LAYER
  5
75
330
2
100
AcDbSymbolTableRecord
100
AcDbLayerTableRecord
  2
SAYFA_CERCEVESI
 70
     0
 62
     7
  6
Continuous
370
    25
390
F
  0
LAYER
  5
76
330
2
100
AcDbSymbolTableRecord
100
AcDbLayerTableRecord
  2
ANTET
 70
     0
 62
     7
  6
Continuous
370
    -3
390
F
  0
LAYER
  5
77
330
2
100
AcDbSymbolTableRecord
100
AcDbLayerTableRecord
  2
OLCU
 70
     0
 62
   150
  6
Continuous
370
    -3
390
F
  0
LAYER
  5
78
330
2
100
AcDbSymbolTableRecord
100
AcDbLayerTableRecord
  2
METIN
 70
     0
 62
    96
  6
Continuous
370
    -3
390
F
  0
LAYER
  5
79
330
2
100
AcDbSymbolTableRecord
100
AcDbLayerTableRecord
  2
BALON
 70
     0
 62
     5
  6
Continuous
370
    -3
390
F
  0
LAYER
  5
7A
330
2
100
AcDbSymbolTableRecord
100
AcDbLayerTableRecord
  2
VURGU
 70
     0
 62
     7
  6
Continuous
370
    -3
390
F
  0
LAYER
  5
7B
330
2
100
AcDbSymbolTableRecord
100
AcDbLayerTableRecord
  2
SILIK
 70
     0
 62
     7
  6
Continuous
370
    -3
390
F
  0
LAYER
  5
7C
330
2
100
AcDbSymbolTableRecord
100
AcDbLayerTableRecord
  2
MODEL
 70
     0
 62
     7
  6
Continuous
370
    -3
390
F
  0
LAYER
  5
7D
330
2
100
AcDbSymbolTableRecord
100
AcDbLayerTableRecord
  2
DETAYLANDıRMA
 70
     0
 62
   190
  6
Continuous
370
    -3
390
F
  0
LAYER
  5
7E
330
2
100
AcDbSymbolTableRecord
100
AcDbLayerTableRecord
  2
TOLERANS
 70
     0
 62
   230
  6
Continuous
370
    -3
390
F
  0
LAYER
  5
7F
330
2
100
AcDbSymbolTableRecord
100
AcDbLayerTableRecord
  2
MERKEZ_CIZGILERI
 70
     0
 62
    30
  6
Continuous
370
    -3
390
F
  0
LAYER
  5
80
330
2
100
AcDbSymbolTableRecord
100
AcDbLayerTableRecord
  2
KESIT-DETAY_CIZGILERI
 70
     0
 62
     7
  6
Continuous
370
    -3
390
F
  0
LAYER
  5
81
330
2
100
AcDbSymbolTableRecord
100
AcDbLayerTableRecord
  2
\U+041E\U+0421\U+0415\U+0412\U+042B\U+0415
 70
     0
 62
     7
  6
Continuous
370
    -3
390
F
  0
LAYER
  5
82
330
2
100
AcDbSymbolTableRecord
100
AcDbLayerTableRecord
  2
\U+0412\U+041E\U+0414\U+042F\U+041D\U+042B\U+0415_\U+0417\U+041D\U+0410\U+041A\U+0418
 70
     0
 62
    11
  6
Continuous
370
    -3
390
F
  0
ENDTAB
  0
TABLE
  2
STYLE
  5
3
330
0
100
AcDbSymbolTable
 70
     1
  0
STYLE
  5
11
330
3
100
AcDbSymbolTableRecord
100
AcDbTextStyleTableRecord
  2
Standard
 70
     0
 40
0.0
 41
1.0
 50
0.0
 71
     0
 42
3.5
  3
txt
  4

  0
ENDTAB
  0
TABLE
  2
VIEW
  5
6
330
0
100
AcDbSymbolTable
 70
     0
  0
ENDTAB
  0
TABLE
  2
UCS
  5
7
330
0
100
AcDbSymbolTable
 70
     0
  0
ENDTAB
  0
TABLE
  2
APPID
  5
9
330
0
100
AcDbSymbolTable
 70
     1
  0
APPID
  5
12
330
9
100
AcDbSymbolTableRecord
100
AcDbRegAppTableRecord
  2
ACAD
 70
     0
  0
ENDTAB
  0
TABLE
  2
DIMSTYLE
  5
A
330
0
100
AcDbSymbolTable
 70
     1
100
AcDbDimStyleTable
  0
DIMSTYLE
105
27
330
A
100
AcDbSymbolTableRecord
100
AcDbDimStyleTableRecord
  2
ISO-25
 70
     0
 41
2.5
 42
0.625
 43
3.75
 44
1.25
 73
     0
 74
     0
 77
     1
 78
     8
140
2.5
141
2.5
143
0.0393700787
147
0.625
171
     3
172
     1
178
     0
271
     2
272
     2
274
     3
278
    44
283
     0
284
     8
340
11
  0
ENDTAB
  0
TABLE
  2
BLOCK_RECORD
  5
1
330
0
100
AcDbSymbolTable
 70
     5
  0
BLOCK_RECORD
  5
1F
330
1
100
AcDbSymbolTableRecord
100
AcDbBlockTableRecord
  2
*Model_Space
340
22
  0
BLOCK_RECORD
  5
1B
330
1
100
AcDbSymbolTableRecord
100
AcDbBlockTableRecord
  2
*Paper_Space
340
1E
  0
BLOCK_RECORD
  5
23
330
1
100
AcDbSymbolTableRecord
100
AcDbBlockTableRecord
  2
*Paper_Space0
340
26
  0
BLOCK_RECORD
  5
8C
330
1
100
AcDbSymbolTableRecord
100
AcDbBlockTableRecord
  2
SW_CENTERMARKSYMBOL_0
340
0
102
{BLKREFS
331
97
102
}
  0
BLOCK_RECORD
  5
AA
330
1
100
AcDbSymbolTableRecord
100
AcDbBlockTableRecord
  2
SW_CENTERMARKSYMBOL_1
340
0
102
{BLKREFS
331
B5
102
}
  0
BLOCK_RECORD
  5
DA
330
1
100
AcDbSymbolTableRecord
100
AcDbBlockTableRecord
  2
SW_CENTERMARKSYMBOL_2
340
0
102
{BLKREFS
331
E5
102
}
  0
BLOCK_RECORD
  5
E6
330
1
100
AcDbSymbolTableRecord
100
AcDbBlockTableRecord
  2
SW_CENTERMARKSYMBOL_3
340
0
102
{BLKREFS
331
F1
102
}
  0
ENDTAB
  0
ENDSEC
  0
SECTION
  2
BLOCKS
  0
BLOCK
  5
20
330
1F
100
AcDbEntity
  8
0
100
AcDbBlockBegin
  2
*Model_Space
 70
     0
 10
0.0
 20
0.0
 30
0.0
  3
*Model_Space
  1

  0
ENDBLK
  5
21
330
1F
100
AcDbEntity
  8
0
100
AcDbBlockEnd
  0
BLOCK
  5
1C
330
1B
100
AcDbEntity
 67
     1
  8
0
100
AcDbBlockBegin
  2
*Paper_Space
 70
     0
 10
0.0
 20
0.0
 30
0.0
  3
*Paper_Space
  1

  0
ENDBLK
  5
1D
330
1B
100
AcDbEntity
 67
     1
  8
0
100
AcDbBlockEnd
  0
BLOCK
  5
24
330
23
100
AcDbEntity
  8
0
100
AcDbBlockBegin
  2
*Paper_Space0
 70
     0
 10
0.0
 20
0.0
 30
0.0
  3
*Paper_Space0
  1

  0
ENDBLK
  5
25
330
23
100
AcDbEntity
  8
0
100
AcDbBlockEnd
  0
BLOCK
  5
8D
330
8C
100
AcDbEntity
  8
0
100
AcDbBlockBegin
  2
SW_CENTERMARKSYMBOL_0
 70
     0
 10
0.0
 20
0.0
 30
0.0
  3
SW_CENTERMARKSYMBOL_0
  1

  0
LINE
  5
8F
330
8C
100
AcDbEntity
  8
FORMAT
 62
     0
100
AcDbLine
 10
0.0
 20
0.0
 30
0.0
 11
0.0
 21
2.5
 31
0.0
  0
LINE
  5
90
330
8C
100
AcDbEntity
  8
FORMAT
 62
     0
100
AcDbLine
 10
0.0
 20
0.0
 30
0.0
 11
-2.5
 21
0.0
 31
0.0
  0
LINE
  5
91
330
8C
100
AcDbEntity
  8
FORMAT
 62
     0
100
AcDbLine
 10
0.0
 20
0.0
 30
0.0
 11
0.0
 21
-2.5
 31
0.0
  0
LINE
  5
92
330
8C
100
AcDbEntity
  8
FORMAT
 62
     0
100
AcDbLine
 10
0.0
 20
0.0
 30
0.0
 11
2.5
 21
0.0
 31
0.0
  0
LINE
  5
93
330
8C
100
AcDbEntity
  8
FORMAT
 62
     0
100
AcDbLine
 10
0.0
 20
5.0
 30
0.0
 11
0.0
 21
81.5
 31
0.0
  0
LINE
  5
94
330
8C
100
AcDbEntity
  8
FORMAT
 62
     0
100
AcDbLine
 10
-5.0
 20
0.0
 30
0.0
 11
-81.5
 21
0.0
 31
0.0
  0
LINE
  5
95
330
8C
100
AcDbEntity
  8
FORMAT
 62
     0
100
AcDbLine
 10
0.0
 20
-5.0
 30
0.0
 11
0.0
 21
-81.5
 31
0.0
  0
LINE
  5
96
330
8C
100
AcDbEntity
  8
FORMAT
 62
     0
100
AcDbLine
 10
5.0
 20
0.0
 30
0.0
 11
81.5
 21
0.0
 31
0.0
  0
ENDBLK
  5
8E
330
8C
100
AcDbEntity
  8
0
100
AcDbBlockEnd
  0
BLOCK
  5
AB
330
AA
100
AcDbEntity
  8
0
100
AcDbBlockBegin
  2
SW_CENTERMARKSYMBOL_1
 70
     0
 10
0.0
 20
0.0
 30
0.0
  3
SW_CENTERMARKSYMBOL_1
  1

  0
LINE
  5
AD
330
AA
100
AcDbEntity
  8
FORMAT
 62
     0
100
AcDbLine
 10
0.0
 20
0.0
 30
0.0
 11
0.0
 21
2.5
 31
0.0
  0
LINE
  5
AE
330
AA
100
AcDbEntity
  8
FORMAT
 62
     0
100
AcDbLine
 10
0.0
 20
0.0
 30
0.0
 11
-2.5
 21
0.0
 31
0.0
  0
LINE
  5
AF
330
AA
100
AcDbEntity
  8
FORMAT
 62
     0
100
AcDbLine
 10
0.0
 20
0.0
 30
0.0
 11
0.0
 21
-2.5
 31
0.0
  0
LINE
  5
B0
330
AA
100
AcDbEntity
  8
FORMAT
 62
     0
100
AcDbLine
 10
0.0
 20
0.0
 30
0.0
 11
2.5
 21
0.0
 31
0.0
  0
LINE
  5
B1
330
AA
100
AcDbEntity
  8
FORMAT
 62
     0
100
AcDbLine
 10
0.0
 20
5.0
 30
0.0
 11
0.0
 21
65.0
 31
0.0
  0
LINE
  5
B2
330
AA
100
AcDbEntity
  8
FORMAT
 62
     0
100
AcDbLine
 10
-5.0
 20
0.0
 30
0.0
 11
-65.0
 21
0.0
 31
0.0
  0
LINE
  5
B3
330
AA
100
AcDbEntity
  8
FORMAT
 62
     0
100
AcDbLine
 10
0.0
 20
-5.0
 30
0.0
 11
0.0
 21
-65.0
 31
0.0
  0
LINE
  5
B4
330
AA
100
AcDbEntity
  8
FORMAT
 62
     0
100
AcDbLine
 10
5.0
 20
0.0
 30
0.0
 11
65.0
 21
0.0
 31
0.0
  0
ENDBLK
  5
AC
330
AA
100
AcDbEntity
  8
0
100
AcDbBlockEnd
  0
BLOCK
  5
DB
330
DA
100
AcDbEntity
  8
0
100
AcDbBlockBegin
  2
SW_CENTERMARKSYMBOL_2
 70
     0
 10
0.0
 20
0.0
 30
0.0
  3
SW_CENTERMARKSYMBOL_2
  1

  0
LINE
  5
DD
330
DA
100
AcDbEntity
  8
FORMAT
 62
     0
100
AcDbLine
 10
0.0
 20
0.0
 30
0.0
 11
0.0
 21
2.5
 31
0.0
  0
LINE
  5
DE
330
DA
100
AcDbEntity
  8
FORMAT
 62
     0
100
AcDbLine
 10
0.0
 20
0.0
 30
0.0
 11
-2.5
 21
0.0
 31
0.0
  0
LINE
  5
DF
330
DA
100
AcDbEntity
  8
FORMAT
 62
     0
100
AcDbLine
 10
0.0
 20
0.0
 30
0.0
 11
0.0
 21
-2.5
 31
0.0
  0
LINE
  5
E0
330
DA
100
AcDbEntity
  8
FORMAT
 62
     0
100
AcDbLine
 10
0.0
 20
0.0
 30
0.0
 11
2.5
 21
0.0
 31
0.0
  0
LINE
  5
E1
330
DA
100
AcDbEntity
  8
FORMAT
 62
     0
100
AcDbLine
 10
0.0
 20
5.0
 30
0.0
 11
0.0
 21
9.5
 31
0.0
  0
LINE
  5
E2
330
DA
100
AcDbEntity
  8
FORMAT
 62
     0
100
AcDbLine
 10
-5.0
 20
0.0
 30
0.0
 11
-9.5
 21
0.0
 31
0.0
  0
LINE
  5
E3
330
DA
100
AcDbEntity
  8
FORMAT
 62
     0
100
AcDbLine
 10
0.0
 20
-5.0
 30
0.0
 11
0.0
 21
-9.5
 31
0.0
  0
LINE
  5
E4
330
DA
100
AcDbEntity
  8
FORMAT
 62
     0
100
AcDbLine
 10
5.0
 20
0.0
 30
0.0
 11
9.5
 21
0.0
 31
0.0
  0
ENDBLK
  5
DC
330
DA
100
AcDbEntity
  8
0
100
AcDbBlockEnd
  0
BLOCK
  5
E7
330
E6
100
AcDbEntity
  8
0
100
AcDbBlockBegin
  2
SW_CENTERMARKSYMBOL_3
 70
     0
 10
0.0
 20
0.0
 30
0.0
  3
SW_CENTERMARKSYMBOL_3
  1

  0
LINE
  5
E9
330
E6
100
AcDbEntity
  8
FORMAT
 62
     0
100
AcDbLine
 10
0.0
 20
0.0
 30
0.0
 11
0.0
 21
2.5
 31
0.0
  0
LINE
  5
EA
330
E6
100
AcDbEntity
  8
FORMAT
 62
     0
100
AcDbLine
 10
0.0
 20
0.0
 30
0.0
 11
-2.5
 21
0.0
 31
0.0
  0
LINE
  5
EB
330
E6
100
AcDbEntity
  8
FORMAT
 62
     0
100
AcDbLine
 10
0.0
 20
0.0
 30
0.0
 11
0.0
 21
-2.5
 31
0.0
  0
LINE
  5
EC
330
E6
100
AcDbEntity
  8
FORMAT
 62
     0
100
AcDbLine
 10
0.0
 20
0.0
 30
0.0
 11
2.5
 21
0.0
 31
0.0
  0
LINE
  5
ED
330
E6
100
AcDbEntity
  8
FORMAT
 62
     0
100
AcDbLine
 10
0.0
 20
5.0
 30
0.0
 11
0.0
 21
9.5
 31
0.0
  0
LINE
  5
EE
330
E6
100
AcDbEntity
  8
FORMAT
 62
     0
100
AcDbLine
 10
-5.0
 20
0.0
 30
0.0
 11
-9.5
 21
0.0
 31
0.0
  0
LINE
  5
EF
330
E6
100
AcDbEntity
  8
FORMAT
 62
     0
100
AcDbLine
 10
0.0
 20
-5.0
 30
0.0
 11
0.0
 21
-9.5
 31
0.0
  0
LINE
  5
F0
330
E6
100
AcDbEntity
  8
FORMAT
 62
     0
100
AcDbLine
 10
5.0
 20
0.0
 30
0.0
 11
9.5
 21
0.0
 31
0.0
  0
ENDBLK
  5
E8
330
E6
100
AcDbEntity
  8
0
100
AcDbBlockEnd
  0
ENDSEC
  0
SECTION
  2
ENTITIES
  0
LINE
  5
83
330
1F
100
AcDbEntity
  8
0
  6
Continuous
 62
     7
370
    25
100
AcDbLine
 10
93.5978446956
 20
179.8291311047
 30
0.0
 11
93.5978446956
 21
200.6320519499
 31
0.0
  0
LINE
  5
84
330
1F
100
AcDbEntity
  8
0
  6
Continuous
 62
     7
370
    25
100
AcDbLine
 10
79.5978446956
 20
200.6320519499
 30
0.0
 11
79.5978446956
 21
179.8217687802
 31
0.0
  0
LINE
  5
85
330
1F
100
AcDbEntity
  8
0
  6
Continuous
 62
     7
370
    25
100
AcDbLine
 10
134.92716811
 20
38.6320519499
 30
0.0
 11
266.5978446956
 21
38.6320519499
 31
0.0
  0
LINE
  5
86
330
1F
100
AcDbEntity
  8
0
  6
Continuous
 62
     7
370
    25
100
AcDbLine
 10
266.5978446956
 20
163.6320519499
 30
0.0
 11
134.9531937434
 21
163.6320519499
 31
0.0
  0
CIRCLE
  5
87
330
1F
100
AcDbEntity
  8
0
  6
Continuous
 62
     7
370
    25
100
AcDbCircle
 10
86.5978446956
 20
101.1320519499
 30
0.0
 40
62.50000000000001
  0
CIRCLE
  5
88
330
1F
100
AcDbEntity
  8
0
  6
Continuous
 62
     7
370
    25
100
AcDbCircle
 10
86.5978446956
 20
101.1320519499
 30
0.0
 40
79.00000000000001
  0
LINE
  5
89
330
1F
100
AcDbEntity
  8
0
  6
Continuous
 62
     7
370
    25
100
AcDbLine
 10
86.5978446956
 20
200.6320519499
 30
0.0
 11
79.5978446956
 21
200.6320519499
 31
0.0
  0
LINE
  5
8A
330
1F
100
AcDbEntity
  8
0
  6
Continuous
 62
     7
370
    25
100
AcDbLine
 10
93.5978446956
 20
200.6320519499
 30
0.0
 11
86.5978446956
 21
200.6320519499
 31
0.0
  0
LINE
  5
8B
330
1F
100
AcDbEntity
  8
0
  6
Continuous
 62
     7
370
    25
100
AcDbLine
 10
266.5978446956
 20
163.6320519499
 30
0.0
 11
266.5978446956
 21
38.6320519499
 31
0.0
  0
INSERT
  5
97
330
1F
100
AcDbEntity
  8
FORMAT
 62
     7
100
AcDbBlockReference
  2
SW_CENTERMARKSYMBOL_0
 10
86.5978446956
 20
101.1320519499
 30
0.0
  0
LINE
  5
98
330
1F
100
AcDbEntity
  8
0
  6
Continuous
 62
     7
370
    25
100
AcDbLine
 10
-384.3645811647
 20
180.1320519499
 30
0.0
 11
-385.4513891486
 21
180.1320519499
 31
0.0
  0
LINE
  5
99
330
1F
100
AcDbEntity
  8
0
  6
Continuous
 62
     7
370
    25
100
AcDbLine
 10
-132.3645811647
 20
180.1320519499
 30
0.0
 11
-370.4513891486
 21
180.1320519499
 31
0.0
  0
LINE
  5
9A
330
1F
100
AcDbEntity
  8
0
  6
Continuous
 62
     7
370
    25
100
AcDbLine
 10
-117.4513891486
 20
180.1320519499
 30
0.0
 11
-118.4513891486
 21
180.1320519499
 31
0.0
  0
LINE
  5
9B
330
1F
100
AcDbEntity
  8
0
  6
Continuous
 62
     7
370
    25
100
AcDbLine
 10
-385.4513891486
 20
22.1320519499
 30
0.0
 11
-117.4513891486
 21
22.1320519499
 31
0.0
  0
LINE
  5
9C
330
1F
100
AcDbEntity
  8
0
  6
Continuous
 62
     7
370
    25
100
AcDbLine
 10
-118.4513891486
 20
180.1320519499
 30
0.0
 11
-118.4513891486
 21
200.6320519499
 31
0.0
  0
LINE
  5
9D
330
1F
100
AcDbEntity
  8
0
  6
Continuous
 62
     7
370
    25
100
AcDbLine
 10
-132.4513891486
 20
200.6320519499
 30
0.0
 11
-132.4513891486
 21
180.1244603311
 31
0.0
  0
LINE
  5
9E
330
1F
100
AcDbEntity
  8
0
  6
Continuous
 62
     7
370
    25
100
AcDbLine
 10
-370.4513891486
 20
180.1320519499
 30
0.0
 11
-370.4513891486
 21
200.6320519499
 31
0.0
  0
LINE
  5
9F
330
1F
100
AcDbEntity
  8
0
  6
Continuous
 62
     7
370
    25
100
AcDbLine
 10
-384.4513891486
 20
200.6320519499
 30
0.0
 11
-384.4513891486
 21
180.1244603311
 31
0.0
  0
CIRCLE
  5
A0
330
1F
100
AcDbEntity
  8
0
  6
Continuous
 62
     7
370
    25
100
AcDbCircle
 10
-251.4513891486
 20
101.1320519499
 30
0.0
 40
51.10000000000002
  0
CIRCLE
  5
A1
330
1F
100
AcDbEntity
  8
0
  6
Continuous
 62
     7
370
    25
100
AcDbCircle
 10
-251.4513891486
 20
101.1320519499
 30
0.0
 40
62.5
  0
LINE
  5
A2
330
1F
100
AcDbEntity
  8
0
  6
Continuous
 62
     7
370
    25
100
AcDbLine
 10
-385.4513891486
 20
101.1320519499
 30
0.0
 11
-385.4513891486
 21
180.1320519499
 31
0.0
  0
LINE
  5
A3
330
1F
100
AcDbEntity
  8
0
  6
Continuous
 62
     7
370
    25
100
AcDbLine
 10
-385.4513891486
 20
22.1320519499
 30
0.0
 11
-385.4513891486
 21
101.1320519499
 31
0.0
  0
SPLINE
  5
A4
330
1F
100
AcDbEntity
  8
0
  6
Continuous
 62
     7
370
    25
100
AcDbSpline
210
0.0
220
0.0
230
1.0
 70
     8
 71
     3
 72
    17
 73
    13
 74
     0
 42
0.00000001
 43
0.00000001
 40
0.0
 40
0.0
 40
0.0
 40
0.0
 40
0.1070846455846279
 40
0.2141591967228417
 40
0.3214960969920783
 40
0.4290084177978438
 40
0.536234182421289
 40
0.6431584138167092
 40
0.750236626434496
 40
0.8576834823910409
 40
0.9651397471044046
 40
1.0
 40
1.0
 40
1.0
 40
1.0
 10
-118.4513891485757
 20
180.132051949928
 30
0.0
 10
-118.5284743599623
 20
180.1250284099165
 30
0.0
 10
-118.6826375162172
 20
180.1109819919749
 30
0.0
 10
-119.8840120606096
 20
180.0132509613647
 30
0.0
 10
-121.6557347986023
 20
179.904220202823
 30
0.0
 10
-123.8724268513043
 20
179.8254237370597
 30
0.0
 10
-126.2623935474685
 20
179.813513519453
 30
0.0
 10
-128.5540469575802
 20
179.8725294891035
 30
0.0
 10
-130.5123300390876
 20
179.9781632623859
 30
0.0
 10
-131.8502365421824
 20
180.0787618568757
 30
0.0
 10
-132.4881846881455
 20
180.1352686675861
 30
0.0
 10
-132.3889006625244
 20
180.1265657720099
 30
0.0
 10
-132.3645811646911
 20
180.1244340086292
 30
0.0
  0
SPLINE
  5
A5
330
1F
100
AcDbEntity
  8
0
  6
Continuous
 62
     7
370
    25
100
AcDbSpline
210
0.0
220
0.0
230
1.0
 70
     8
 71
     3
 72
    17
 73
    13
 74
     0
 42
0.00000001
 43
0.00000001
 40
0.0
 40
0.0
 40
0.0
 40
0.0
 40
0.1070846455846277
 40
0.2141591967228406
 40
0.3214960969920784
 40
0.4290084177978434
 40
0.5362341824212892
 40
0.6431584138167081
 40
0.7502366264344968
 40
0.857683482391039
 40
0.9651397471044036
 40
1.0
 40
1.0
 40
1.0
 40
1.0
 10
-370.4513891485757
 20
180.132051949928
 30
0.0
 10
-370.5284743599623
 20
180.1250284099165
 30
0.0
 10
-370.6826375162171
 20
180.1109819919749
 30
0.0
 10
-371.8840120606096
 20
180.0132509613647
 30
0.0
 10
-373.6557347986023
 20
179.9042202028231
 30
0.0
 10
-375.8724268513043
 20
179.8254237370597
 30
0.0
 10
-378.2623935474684
 20
179.813513519453
 30
0.0
 10
-380.5540469575803
 20
179.8725294891034
 30
0.0
 10
-382.5123300390876
 20
179.9781632623859
 30
0.0
 10
-383.8502365421824
 20
180.0787618568758
 30
0.0
 10
-384.4881846881454
 20
180.1352686675861
 30
0.0
 10
-384.3889006625245
 20
180.1265657720099
 30
0.0
 10
-384.3645811646911
 20
180.1244340086292
 30
0.0
  0
LINE
  5
A6
330
1F
100
AcDbEntity
  8
0
  6
Continuous
 62
     7
370
    25
100
AcDbLine
 10
-117.4513891486
 20
101.1320519499
 30
0.0
 11
-117.4513891486
 21
180.1320519499
 31
0.0
  0
LINE
  5
A7
330
1F
100
AcDbEntity
  8
0
  6
Continuous
 62
     7
370
    25
100
AcDbLine
 10
-117.4513891486
 20
22.1320519499
 30
0.0
 11
-117.4513891486
 21
101.1320519499
 31
0.0
  0
LINE
  5
A8
330
1F
100
AcDbEntity
  8
0
  6
Continuous
 62
     7
370
    25
100
AcDbLine
 10
-118.4513891486
 20
200.6320519499
 30
0.0
 11
-132.4513891486
 21
200.6320519499
 31
0.0
  0
LINE
  5
A9
330
1F
100
AcDbEntity
  8
0
  6
Continuous
 62
     7
370
    25
100
AcDbLine
 10
-370.4513891486
 20
200.6320519499
 30
0.0
 11
-384.4513891486
 21
200.6320519499
 31
0.0
  0
INSERT
  5
B5
330
1F
100
AcDbEntity
  8
FORMAT
 62
     7
100
AcDbBlockReference
  2
SW_CENTERMARKSYMBOL_1
 10
-251.4513891486
 20
101.1320519499
 30
0.0
  0
LINE
  5
B6
330
1F
100
AcDbEntity
  8
0
  6
Continuous
 62
     7
370
    25
100
AcDbLine
 10
165.5978446956
 20
506.8571376556
 30
0.0
 11
165.5978446956
 21
578.3571376556
 31
0.0
  0
LINE
  5
B7
330
1F
100
AcDbEntity
  8
0
  6
Continuous
 62
     7
370
    25
100
AcDbLine
 10
165.5978446956
 20
310.3571376556
 30
0.0
 11
165.5978446956
 21
381.8789008076
 31
0.0
  0
LINE
  5
B8
330
1F
100
AcDbEntity
  8
0
  6
Continuous
 62
     7
370
    25
100
AcDbLine
 10
7.5978446956
 20
578.3571376556
 30
0.0
 11
7.5978446956
 21
310.3571376556
 31
0.0
  0
LINE
  5
B9
330
1F
100
AcDbEntity
  8
0
  6
Continuous
 62
     7
370
    25
100
AcDbLine
 10
165.5806264886
 20
381.8571376556
 30
0.0
 11
266.5978446956
 21
381.8571376556
 31
0.0
  0
LINE
  5
BA
330
1F
100
AcDbEntity
  8
0
  6
Continuous
 62
     7
370
    25
100
AcDbLine
 10
266.5978446956
 20
506.8571376556
 30
0.0
 11
165.5978446956
 21
506.8571376556
 31
0.0
  0
SPLINE
  5
BB
330
1F
100
AcDbEntity
  8
0
  6
Continuous
 62
     7
370
    25
100
AcDbSpline
210
0.0
220
0.0
230
1.0
 70
     8
 71
     3
 72
    49
 73
    45
 74
     0
 42
0.00000001
 43
0.00000001
 40
0.0
 40
0.0
 40
0.0
 40
0.0
 40
0.0214169384512976
 40
0.0428345405493556
 40
0.0649649848480464
 40
0.0870973616867469
 40
0.1084907621778568
 40
0.1298862149063355
 40
0.1518032625683423
 40
0.1737223701384976
 40
0.2024301202235256
 40
0.2311421542494701
 40
0.2606755941766962
 40
0.2902108271207148
 40
0.3193262710292671
 40
0.3484389585385718
 40
0.3784405063883973
 40
0.4084283708347204
 40
0.442331700446311
 40
0.4597080886553827
 40
0.4770815611216201
 40
0.4940812468850753
 40
0.5110804137591003
 40
0.5286735416391166
 40
0.5462691731805024
 40
0.5662797119376178
 40
0.5862956726026091
 40
0.6068670375355044
 40
0.6274422856088724
 40
0.6567994057903283
 40
0.6861624365539242
 40
0.7163457868062377
 40
0.7465288350465556
 40
0.7764276534380431
 40
0.8063224880440888
 40
0.837249732110592
 40
0.8681692760960013
 40
0.8893754281732913
 40
0.9105795979524008
 40
0.9323656560631423
 40
0.9541498538822354
 40
0.9753806320916171
 40
0.9966106786365956
 40
1.0
 40
1.0
 40
1.0
 40
1.0
 10
165.5978446956064
 20
506.8571376556326
 30
0.0
 10
165.5734636709172
 20
506.8263759630548
 30
0.0
 10
165.5247008660439
 20
506.7648516246865
 30
0.0
 10
165.1337871816814
 20
506.2698741616884
 30
0.0
 10
164.5059775008016
 20
505.4722824646389
 30
0.0
 10
163.6371239625803
 20
504.3612855440027
 30
0.0
 10
162.5643693433159
 20
502.9785979515862
 30
0.0
 10
161.3069948689222
 20
501.3407667391903
 30
0.0
 10
159.8672741257167
 20
499.4413455383521
 30
0.0
 10
158.1005354757766
 20
497.0723155317603
 30
0.0
 10
155.9891507706765
 20
494.1789884733241
 30
0.0
 10
153.509649389999
 20
490.6685718005645
 30
0.0
 10
150.8883928104575
 20
486.8035948337519
 30
0.0
 10
148.197394045938
 20
482.6131048518441
 30
0.0
 10
145.521105031663
 20
478.1509292000235
 30
0.0
 10
142.9082643342908
 20
473.3744751755556
 30
0.0
 10
140.4307840722752
 20
468.2513038617651
 30
0.0
 10
138.1193355622045
 20
462.5269855529473
 30
0.0
 10
136.5271946509902
 20
457.2723491102088
 30
0.0
 10
135.5868561761413
 20
452.670816297503
 30
0.0
 10
135.1094199475715
 20
449.1359180369483
 30
0.0
 10
134.8909932725244
 20
445.586389845118
 30
0.0
 10
134.9289699913533
 20
442.0110679350382
 30
0.0
 10
135.2381962969239
 20
438.4150700420144
 30
0.0
 10
135.8319071829901
 20
434.6653360948245
 30
0.0
 10
136.7254098934337
 20
430.8398064687794
 30
0.0
 10
137.9178227728868
 20
426.9391945543302
 30
0.0
 10
139.3323381933813
 20
423.1407386967367
 30
0.0
 10
141.1522736942683
 20
418.9296104599866
 30
0.0
 10
143.3885893853189
 20
414.4196735519272
 30
0.0
 10
146.044225445961
 20
409.6619026947039
 30
0.0
 10
148.7850485195996
 20
405.159243852675
 30
0.0
 10
151.5334531120936
 20
400.9423904108421
 30
0.0
 10
154.1939669574549
 20
397.0615162132655
 30
0.0
 10
156.7394453326065
 20
393.4957273392801
 30
0.0
 10
159.1064638666553
 20
390.2817088818058
 30
0.0
 10
161.0037157404955
 20
387.7699592894672
 30
0.0
 10
162.4474277438832
 20
385.8872381381808
 30
0.0
 10
163.5292828543126
 20
384.4914753226589
 30
0.0
 10
164.4093578988506
 20
383.3651454301956
 30
0.0
 10
165.0688994888554
 20
382.5267210462716
 30
0.0
 10
165.4575964086681
 20
382.0342335942507
 30
0.0
 10
165.6262518839841
 20
381.8212479077254
 30
0.0
 10
165.5861439789824
 20
381.8719242510173
 30
0.0
 10
165.5806223677139
 20
381.8789008075876
 30
0.0
  0
LINE
  5
BC
330
1F
100
AcDbEntity
  8
0
  6
Continuous
 62
     7
370
    25
100
AcDbLine
 10
7.5978446956
 20
578.3571376556
 30
0.0
 11
165.5978446956
 21
578.3571376556
 31
0.0
  0
LINE
  5
BD
330
1F
100
AcDbEntity
  8
0
  6
Continuous
 62
     7
370
    25
100
AcDbLine
 10
7.5978446956
 20
310.3571376556
 30
0.0
 11
165.5978446956
 21
310.3571376556
 31
0.0
  0
LINE
  5
BE
330
1F
100
AcDbEntity
  8
0
  6
Continuous
 62
     7
370
    25
100
AcDbLine
 10
266.5978446956
 20
506.8571376556
 30
0.0
 11
266.5978446956
 21
381.8571376556
 31
0.0
  0
LINE
  5
BF
330
1F
100
AcDbEntity
  8
0
  6
Continuous
 62
     7
370
    25
100
AcDbLine
 10
332.876447725
 20
22.1320519499
 30
0.0
 11
600.876447725
 21
22.1320519499
 31
0.0
  0
LINE
  5
C0
330
1F
100
AcDbEntity
  8
0
  6
Continuous
 62
     7
370
    25
100
AcDbLine
 10
333.876447725
 20
180.1320519499
 30
0.0
 11
332.876447725
 21
180.1320519499
 31
0.0
  0
LINE
  5
C1
330
1F
100
AcDbEntity
  8
0
  6
Continuous
 62
     7
370
    25
100
AcDbLine
 10
585.876447725
 20
180.1320519499
 30
0.0
 11
347.7896397412
 21
180.1320519499
 31
0.0
  0
LINE
  5
C2
330
1F
100
AcDbEntity
  8
0
  6
Continuous
 62
     7
370
    25
100
AcDbLine
 10
600.876447725
 20
180.1320519499
 30
0.0
 11
599.7896397412
 21
180.1320519499
 31
0.0
  0
LINE
  5
C3
330
1F
100
AcDbEntity
  8
0
  6
Continuous
 62
     7
370
    25
100
AcDbLine
 10
347.876447725
 20
180.1244603311
 30
0.0
 11
347.876447725
 21
200.6320519499
 31
0.0
  0
LINE
  5
C4
330
1F
100
AcDbEntity
  8
0
  6
Continuous
 62
     7
370
    25
100
AcDbLine
 10
333.876447725
 20
200.6320519499
 30
0.0
 11
333.876447725
 21
180.1320519499
 31
0.0
  0
LINE
  5
C5
330
1F
100
AcDbEntity
  8
0
  6
Continuous
 62
     7
370
    25
100
AcDbLine
 10
599.876447725
 20
180.1244603311
 30
0.0
 11
599.876447725
 21
200.6320519499
 31
0.0
  0
LINE
  5
C6
330
1F
100
AcDbEntity
  8
0
  6
Continuous
 62
     7
370
    25
100
AcDbLine
 10
585.876447725
 20
200.6320519499
 30
0.0
 11
585.876447725
 21
180.1320519499
 31
0.0
  0
LINE
  5
C7
330
1F
100
AcDbEntity
  8
0
  6
Continuous
 62
     7
370
    25
100
AcDbLine
 10
600.876447725
 20
180.1320519499
 30
0.0
 11
600.876447725
 21
22.1320519499
 31
0.0
  0
ARC
  5
C8
330
1F
100
AcDbEntity
  8
0
  6
Continuous
 62
     7
370
    25
100
AcDbCircle
 10
340.8762090891
 20
258.9642253883
 30
0.0
 40
79.1423289281438
100
AcDbArc
 50
264.9258314719
 51
275.0114257957
  0
ARC
  5
C9
330
1F
100
AcDbEntity
  8
0
  6
Continuous
 62
     7
370
    25
100
AcDbCircle
 10
592.8762090891
 20
258.9642253883
 30
0.0
 40
79.14232892817154
100
AcDbArc
 50
264.9258314719
 51
275.0114257957
  0
LINE
  5
CA
330
1F
100
AcDbEntity
  8
0
  6
Continuous
 62
     7
370
    25
100
AcDbLine
 10
332.876447725
 20
180.1320519499
 30
0.0
 11
332.876447725
 21
22.1320519499
 31
0.0
  0
LINE
  5
CB
330
1F
100
AcDbEntity
  8
0
  6
Continuous
 62
     7
370
    25
100
AcDbLine
 10
347.876447725
 20
200.6320519499
 30
0.0
 11
333.876447725
 21
200.6320519499
 31
0.0
  0
LINE
  5
CC
330
1F
100
AcDbEntity
  8
0
  6
Continuous
 62
     7
370
    25
100
AcDbLine
 10
599.876447725
 20
200.6320519499
 30
0.0
 11
585.876447725
 21
200.6320519499
 31
0.0
  0
LINE
  5
CD
330
1F
100
AcDbEntity
  8
0
  6
Continuous
 62
     7
370
    25
100
AcDbLine
 10
7.5978446956
 20
-61.8592251429
 30
0.0
 11
7.5978446956
 21
-329.8592251429
 31
0.0
  0
LINE
  5
CE
330
1F
100
AcDbEntity
  8
0
  6
Continuous
 62
     7
370
    25
100
AcDbLine
 10
165.5978446956
 20
-133.3809882949
 30
0.0
 11
165.5978446956
 21
-61.8592251429
 31
0.0
  0
LINE
  5
CF
330
1F
100
AcDbEntity
  8
0
  6
Continuous
 62
     7
370
    25
100
AcDbLine
 10
165.5978446956
 20
-329.8592251429
 30
0.0
 11
165.5978446956
 21
-258.3592251429
 31
0.0
  0
LINE
  5
D0
330
1F
100
AcDbEntity
  8
0
  6
Continuous
 62
     7
370
    25
100
AcDbLine
 10
165.5978446956
 20
-258.3592251429
 30
0.0
 11
266.5978446956
 21
-258.3592251429
 31
0.0
  0
LINE
  5
D1
330
1F
100
AcDbEntity
  8
0
  6
Continuous
 62
     7
370
    25
100
AcDbLine
 10
266.5978446956
 20
-133.3592251429
 30
0.0
 11
165.5806264886
 21
-133.3592251429
 31
0.0
  0
CIRCLE
  5
D2
330
1F
100
AcDbEntity
  8
0
  6
Continuous
 62
     7
370
    25
100
AcDbCircle
 10
86.5978446956
 20
-69.8592251429
 30
0.0
 40
5.000000000000014
  0
CIRCLE
  5
D3
330
1F
100
AcDbEntity
  8
0
  6
Continuous
 62
     7
370
    25
100
AcDbCircle
 10
86.5978446956
 20
-69.8592251429
 30
0.0
 40
7.000000000000028
  0
CIRCLE
  5
D4
330
1F
100
AcDbEntity
  8
0
  6
Continuous
 62
     7
370
    25
100
AcDbCircle
 10
86.5978446956
 20
-321.8592251429
 30
0.0
 40
5.0
  0
CIRCLE
  5
D5
330
1F
100
AcDbEntity
  8
0
  6
Continuous
 62
     7
370
    25
100
AcDbCircle
 10
86.5978446956
 20
-321.8592251429
 30
0.0
 40
7.0
  0
LWPOLYLINE
  5
D6
330
1F
100
AcDbEntity
  8
0
  6
Continuous
 62
     7
370
    25
100
AcDbPolyline
 90
       45
 70
   128
 43
0.0
 10
165.5806223677
 20
-133.3809882949
 10
165.5034758856
 20
-133.4784690447
 10
165.1528734873
 20
-133.9226241023
 10
164.6205087491
 20
-134.5991910229
 10
163.8940408589
 20
-135.5272109108
 10
162.9600000686
 20
-136.7285751318
 10
161.8510720656
 20
-138.1678199806
 10
160.5205960767
 20
-139.9143551299
 10
159.0384062151
 20
-141.8880758754
 10
157.3913915137
 20
-144.1196559382
 10
155.6314827092
 20
-146.5551362923
 10
153.459104585
 20
-149.6456203672
 10
151.2000708045
 20
-152.979187617
 10
148.8445808531
 20
-156.6171531231
 10
146.4810916412
 20
-160.4861666839
 10
144.1952916787
 20
-164.5102148481
 10
142.0003844447
 20
-168.7540335618
 10
139.9096334077
 20
-173.3331068327
 10
138.0618566088
 20
-178.1449788366
 10
136.1833666706
 20
-184.7248643829
 10
135.5173756681
 20
-188.2225218684
 10
135.0889371347
 20
-191.7804942205
 10
134.9211119032
 20
-195.2932424222
 10
135.0071522615
 20
-198.8106754652
 10
135.3615428548
 20
-202.4234480571
 10
135.9660490545
 20
-205.9819521285
 10
136.9474272077
 20
-210.0118312606
 10
138.1808442235
 20
-213.9162415158
 10
139.6584931638
 20
-217.7839394243
 10
141.2995624652
 20
-221.5015325068
 10
143.8210341287
 20
-226.5158128581
 10
146.4801506167
 20
-231.230690513
 10
149.2662546102
 20
-235.7671531354
 10
152.0306342679
 20
-239.9806479578
 10
154.6675909967
 20
-243.8047525719
 10
157.1542253705
 20
-247.2737450175
 10
159.5057658215
 20
-250.4562964599
 10
161.5630296734
 20
-253.1743972945
 10
162.7498828599
 20
-254.7182819246
 10
163.7525570612
 20
-256.0098663715
 10
164.5710860245
 20
-257.056319585
 10
165.1592937361
 20
-257.8039688694
 10
165.4868556505
 20
-258.2188759553
 10
165.5978446956
 20
-258.3592251429
 10
165.5978446956
 20
-258.3592251429
  0
LINE
  5
D7
330
1F
100
AcDbEntity
  8
0
  6
Continuous
 62
     7
370
    25
100
AcDbLine
 10
165.5978446956
 20
-329.8592251429
 30
0.0
 11
7.5978446956
 21
-329.8592251429
 31
0.0
  0
LINE
  5
D8
330
1F
100
AcDbEntity
  8
0
  6
Continuous
 62
     7
370
    25
100
AcDbLine
 10
165.5978446956
 20
-61.8592251429
 30
0.0
 11
7.5978446956
 21
-61.8592251429
 31
0.0
  0
LINE
  5
D9
330
1F
100
AcDbEntity
  8
0
  6
Continuous
 62
     7
370
    25
100
AcDbLine
 10
266.5978446956
 20
-133.3592251429
 30
0.0
 11
266.5978446956
 21
-258.3592251429
 31
0.0
  0
INSERT
  5
E5
330
1F
100
AcDbEntity
  8
FORMAT
 62
     7
100
AcDbBlockReference
  2
SW_CENTERMARKSYMBOL_2
 10
86.5978446956
 20
-69.8592251429
 30
0.0
  0
INSERT
  5
F1
330
1F
100
AcDbEntity
  8
FORMAT
 62
     7
100
AcDbBlockReference
  2
SW_CENTERMARKSYMBOL_3
 10
86.5978446956
 20
-321.8592251429
 30
0.0
  0
LINE
  5
F2
330
1F
100
AcDbEntity
  8
0
  6
Continuous
 62
     7
370
    25
100
AcDbLine
 10
535.4626205716
 20
-209.9384507378
 30
0.0
 11
616.4481457568
 21
-163.1865021915
 31
0.0
  0
LINE
  5
F3
330
1F
100
AcDbEntity
  8
0
  6
Continuous
 62
     7
370
    25
100
AcDbLine
 10
553.9532249671
 20
-54.930394394
 30
0.0
 11
472.9741308031
 21
-101.6786303906
 31
0.0
  0
LINE
  5
F4
330
1F
100
AcDbEntity
  8
0
  6
Continuous
 62
     7
370
    25
100
AcDbLine
 10
474.4228057689
 20
-100.8423281341
 30
0.0
 11
402.6659460085
 21
-59.4179747366
 31
0.0
  0
LINE
  5
F5
330
1F
100
AcDbEntity
  8
0
  6
Continuous
 62
     7
370
    25
100
AcDbLine
 10
323.6723661303
 20
-196.2536949927
 30
0.0
 11
513.1769834883
 21
-305.652381977
 31
0.0
  0
LINE
  5
F6
330
1F
100
AcDbEntity
  8
0
  6
Continuous
 62
     7
370
    25
100
AcDbLine
 10
375.8260103189
 20
-57.7000574161
 30
0.0
 11
375.8260103189
 21
-49.8556565293
 31
0.0
  0
LINE
  5
F7
330
1F
100
AcDbEntity
  8
0
  6
Continuous
 62
     7
370
    25
100
AcDbLine
 10
361.8260103189
 20
-49.8556565293
 30
0.0
 11
361.8260103189
 21
-64.1231414487
 31
0.0
  0
LWPOLYLINE
  5
F8
330
1F
100
AcDbEntity
  8
0
  6
Continuous
 62
     7
370
    25
100
AcDbPolyline
 90
       85
 70
   128
 43
0.0
 10
621.3338418806
 20
-129.9176755498
 10
621.2328062465
 20
-126.7412181669
 10
620.9302643764
 20
-123.465871562
 10
620.4279082072
 20
-120.109952802
 10
619.7285471184
 20
-116.6922295459
 10
618.8360922208
 20
-113.2318150885
 10
617.7555344843
 20
-109.7480614711
 10
616.492916826
 20
-106.260451257
 10
615.0553003161
 20
-102.7884885773
 10
613.4507246892
 20
-99.3515900558
 10
611.6881633831
 20
-95.9689762229
 10
609.7774733555
 20
-92.6595640274
 10
607.7293399603
 20
-89.4418610448
 10
605.5552171901
 20
-86.3338619752
 10
603.2672636213
 20
-83.3529480103
 10
600.8782744184
 20
-80.5157896301
 10
598.4016097781
 20
-77.8382533752
 10
595.8511202136
 20
-75.3353131142
 10
593.2410690973
 20
-73.0209663046
 10
590.5860528936
 20
-70.9081557124
 10
587.9009195302
 20
-69.0086970315
 10
585.200685362
 20
-67.3332128054
 10
582.5004511937
 20
-65.8910730214
 10
579.8153178303
 20
-64.6903427103
 10
577.1603016266
 20
-63.7377368429
 10
574.5502505103
 20
-63.0385827778
 10
571.9997609458
 20
-62.596790468
 10
569.5230963055
 20
-62.4148305953
 10
567.1341071026
 20
-62.4937207533
 10
564.8461535339
 20
-62.833019756
 10
562.6720307636
 20
-63.4308301059
 10
560.6238973684
 20
-64.283808605
 10
558.7132073409
 20
-65.3871850515
 10
556.9506460347
 20
-66.7347889167
 10
555.3460704078
 20
-68.3190838532
 10
553.9084538979
 20
-70.1312098411
 10
552.6458362396
 20
-72.1610327368
 10
551.5652785031
 20
-74.3972009473
 10
550.6728236055
 20
-76.8272089128
 10
549.9734625167
 20
-79.4374670431
 10
549.4711063475
 20
-82.213377716
 10
549.1685644774
 20
-85.1394169128
 10
549.0675288433
 20
-88.1992210357
 10
549.1685644774
 20
-91.3756784186
 10
549.4711063475
 20
-94.6510250235
 10
549.9734625167
 20
-98.0069437835
 10
550.6728236055
 20
-101.4246670396
 10
551.5652785031
 20
-104.885081497
 10
552.6458362396
 20
-108.3688351144
 10
553.9084538979
 20
-111.8564453285
 10
555.3460704078
 20
-115.3284080081
 10
556.9506460347
 20
-118.7653065297
 10
558.7132073409
 20
-122.1479203626
 10
560.6238973684
 20
-125.4573325581
 10
562.6720307636
 20
-128.6750355407
 10
564.8461535339
 20
-131.7830346103
 10
567.1341071026
 20
-134.7639485752
 10
569.5230963055
 20
-137.6011069554
 10
571.9997609458
 20
-140.2786432103
 10
574.5502505103
 20
-142.7815834713
 10
577.1603016266
 20
-145.0959302809
 10
579.8153178303
 20
-147.2087408731
 10
582.5004511937
 20
-149.108199554
 10
585.200685362
 20
-150.7836837801
 10
587.9009195302
 20
-152.2258235641
 10
590.5860528936
 20
-153.4265538752
 10
593.2410690973
 20
-154.3791597426
 10
595.8511202136
 20
-155.0783138077
 10
598.4016097781
 20
-155.5201061175
 10
600.8782744184
 20
-155.7020659902
 10
603.2672636213
 20
-155.6231758322
 10
605.5552171901
 20
-155.2838768295
 10
607.7293399603
 20
-154.6860664796
 10
609.7774733555
 20
-153.8330879805
 10
611.6881633831
 20
-152.729711534
 10
613.4507246892
 20
-151.3821076688
 10
615.0553003161
 20
-149.7978127323
 10
616.492916826
 20
-147.9856867444
 10
617.7555344843
 20
-145.9558638487
 10
618.8360922208
 20
-143.7196956382
 10
619.7285471184
 20
-141.2896876727
 10
620.4279082072
 20
-138.6794295424
 10
620.9302643764
 20
-135.9035188695
 10
621.2328062465
 20
-132.9774796726
 10
621.3338418806
 20
-129.9176755498
  0
LWPOLYLINE
  5
F9
330
1F
100
AcDbEntity
  8
0
  6
Continuous
 62
     7
370
    25
100
AcDbPolyline
 90
       94
 70
   128
 43
0.0
 10
629.3948591861
 20
-134.5712017872
 10
629.2940352467
 20
-131.0677183965
 10
628.9920234651
 20
-127.4638117544
 10
628.4902018516
 20
-123.7759256603
 10
627.7908601034
 20
-120.0208870926
 10
626.8971891562
 20
-116.2158294309
 10
625.8132666258
 20
-112.3781142808
 10
624.5440382019
 20
-108.5252522561
 10
623.0952950829
 20
-104.6748230827
 10
621.4736475512
 20
-100.8443953857
 10
619.6864948126
 20
-97.0514465281
 10
617.7419912351
 20
-93.3132828656
 10
615.6490091427
 20
-89.6469607817
 10
613.4170983324
 20
-86.069208863
 10
611.0564425015
 20
-82.5963515711
 10
608.5778127811
 20
-79.2442347571
 10
605.99251859
 20
-76.0281533613
 10
603.3123560327
 20
-72.9627816255
 10
600.5495540762
 20
-70.0621061377
 10
597.7167187522
 20
-67.339362015
 10
594.8267756386
 20
-64.8069725143
 10
591.8929108828
 20
-62.476492348
 10
588.9285110369
 20
-60.3585549627
 10
585.9471019775
 20
-58.4628240208
 10
582.9622871902
 20
-56.7979493079
 10
579.9876857005
 20
-55.3715272653
 10
577.0368699325
 20
-54.1900663298
 10
574.1233037818
 20
-53.2589572365
 10
571.2602811827
 20
-52.5824484228
 10
568.4608654504
 20
-52.1636266431
 10
565.7378296769
 20
-52.0044028852
 10
563.1035984499
 20
-52.1055036505
 10
560.5701911623
 20
-52.4664676396
 10
558.1491671704
 20
-53.0856478564
 10
555.8515730516
 20
-53.9602191236
 10
553.6878922007
 20
-55.0861909732
 10
551.6679969972
 20
-56.4584258539
 10
549.8011037596
 20
-58.0706625727
 10
548.0957306937
 20
-59.9155448631
 10
546.5596590255
 20
-61.9846549504
 10
545.1998974978
 20
-64.2685519599
 10
544.0226503905
 20
-66.7568149934
 10
543.0332892122
 20
-69.4380906772
 10
542.236328191
 20
-72.3001449656
 10
541.6354036772
 20
-75.3299189611
 10
541.2332575517
 20
-78.5135885001
 10
541.0317247148
 20
-81.8366272284
 10
541.0317247148
 20
-85.2838728827
 10
541.2332575517
 20
-88.8395964716
 10
541.6354036772
 20
-92.487574044
 10
542.236328191
 20
-96.2111607149
 10
543.0332892122
 20
-99.9933666124
 10
544.0226503905
 20
-103.8169343984
 10
545.1998974978
 20
-107.6644180101
 10
546.5596590255
 20
-111.5182622623
 10
548.0957306937
 20
-115.3608829475
 10
549.8011037596
 20
-119.1747470688
 10
551.6679969972
 20
-122.9424528392
 10
553.6878922007
 20
-126.6468090812
 10
555.8515730516
 20
-130.2709136671
 10
558.1491671704
 20
-133.7982306387
 10
560.5701911623
 20
-137.2126656578
 10
563.1035984499
 20
-140.4986394405
 10
565.7378296769
 20
-143.6411588421
 10
568.4608654504
 20
-146.6258852674
 10
571.2602811827
 20
-149.4392000943
 10
574.1233037818
 20
-152.0682668124
 10
577.0368699325
 20
-154.5010895934
 10
579.9876857005
 20
-156.7265680248
 10
582.9622871902
 20
-158.734547759
 10
585.9471019775
 20
-160.5158668451
 10
588.9285110369
 20
-162.0623975327
 10
591.8929108828
 20
-163.3670833568
 10
594.8267756386
 20
-164.4239713354
 10
597.7167187522
 20
-165.228239131
 10
600.5495540762
 20
-165.7762170541
 10
603.3123560327
 20
-166.0654048071
 10
605.99251859
 20
-166.0944828927
 10
608.5778127811
 20
-165.8633186342
 10
611.0564425015
 20
-165.3729667811
 10
613.4170983324
 20
-164.6256646965
 10
615.6490091427
 20
-163.6248221483
 10
617.7419912351
 20
-162.3750057515
 10
619.6864948126
 20
-160.8819181318
 10
621.4736475512
 20
-159.1523719054
 10
623.0952950829
 20
-157.1942585951
 10
624.5440382019
 20
-155.0165126229
 10
625.8132666258
 20
-152.6290705441
 10
626.8971891562
 20
-150.0428257093
 10
627.7908601034
 20
-147.2695785605
 10
628.4902018516
 20
-144.3219827884
 10
628.9920234651
 20
-141.2134875965
 10
629.2940352467
 20
-137.9582763353
 10
629.3948591861
 20
-134.5712017872
  0
SPLINE
  5
FA
330
1F
100
AcDbEntity
  8
0
  6
Continuous
 62
     7
370
    25
100
AcDbSpline
210
0.0
220
0.0
230
1.0
 70
     8
 71
     3
 72
    39
 73
    35
 74
     0
 42
0.00000001
 43
0.00000001
 40
0.0
 40
0.0
 40
0.0
 40
0.0
 40
0.0284565746013303
 40
0.0569140309866556
 40
0.086318637092162
 40
0.1157258109535164
 40
0.1441511107897086
 40
0.1725791374230064
 40
0.2017002045285163
 40
0.2308240086232568
 40
0.2689678466787587
 40
0.3071173767842496
 40
0.3463583046336781
 40
0.3856016148551823
 40
0.4242871535711218
 40
0.4629690298737338
 40
0.5028319302824622
 40
0.5426766496242069
 40
0.587723827143049
 40
0.6108117436768506
 40
0.6338957860783307
 40
0.6564831800341475
 40
0.67906988454428
 40
0.7024457819502931
 40
0.725825005958131
 40
0.7524129046089846
 40
0.7790080073206005
 40
0.8063410727909671
 40
0.8336792977698597
 40
0.8726859504911877
 40
0.9117004565722284
 40
0.9518049168864898
 40
0.9919089759189852
 40
1.0
 40
1.0
 40
1.0
 40
1.0
 10
469.5887266379561
 20
-124.7743044453349
 30
0.0
 10
469.5932384514886
 20
-126.007495069673
 30
0.0
 10
469.6022622183613
 20
-128.473914531232
 30
0.0
 10
469.6758464219104
 20
-132.4780362928477
 30
0.0
 10
469.7959004368676
 20
-136.6818641824564
 30
0.0
 10
469.9671216645925
 20
-141.0225223607187
 30
0.0
 10
470.1862773716217
 20
-145.4080846288207
 30
0.0
 10
470.4553009110112
 20
-149.8387490104127
 30
0.0
 10
470.7803582219178
 20
-154.3366844853777
 30
0.0
 10
471.2062425244563
 20
-159.3431079952604
 30
0.0
 10
471.7591592649972
 20
-164.7924169982161
 30
0.0
 10
472.4881264588573
 20
-170.6849203173375
 30
0.0
 10
473.3675695785969
 20
-176.5140310679984
 30
0.0
 10
474.4278699867409
 20
-182.2125633165306
 30
0.0
 10
475.6906825385834
 20
-187.6949342007477
 30
0.0
 10
477.2205881940252
 20
-192.9806968368106
 30
0.0
 10
479.0913742777106
 20
-198.0418063097599
 30
0.0
 10
481.5046376555123
 20
-203.0064000059054
 30
0.0
 10
484.0944130826147
 20
-206.8765495704281
 30
0.0
 10
486.6832684246636
 20
-209.7517269750938
 30
0.0
 10
488.845220565259
 20
-211.6940977471147
 30
0.0
 10
491.2006650198429
 20
-213.3705148415571
 30
0.0
 10
493.7556530457866
 20
-214.7901067985262
 30
0.0
 10
496.5170633155456
 20
-215.9365146816633
 30
0.0
 10
499.5883435665679
 20
-216.8431240542771
 30
0.0
 10
502.9251992863164
 20
-217.4523162101186
 30
0.0
 10
506.526527287599
 20
-217.7447561866804
 30
0.0
 10
510.2125947770942
 20
-217.709549999404
 30
0.0
 10
514.4774574623488
 20
-217.3201582532123
 30
0.0
 10
519.2464101778085
 20
-216.446288777975
 30
0.0
 10
524.4939670203519
 20
-214.9665459755693
 30
0.0
 10
529.5949160414306
 20
-212.9665034837038
 30
0.0
 10
533.2787164608997
 20
-211.2540118079795
 30
0.0
 10
535.1306786144
 20
-210.0974434393647
 30
0.0
 10
535.4415873090859
 20
-209.9032779370507
 30
0.0
  0
SPLINE
  5
FB
330
1F
100
AcDbEntity
  8
0
  6
Continuous
 62
     7
370
    25
100
AcDbSpline
210
0.0
220
0.0
230
1.0
 70
     8
 71
     3
 72
    17
 73
    13
 74
     0
 42
0.00000001
 43
0.00000001
 40
0.0
 40
0.0
 40
0.0
 40
0.0
 40
0.1194968009747931
 40
0.2410729044259754
 40
0.3670170039144416
 40
0.4929280316755286
 40
0.5778850579593316
 40
0.662834385165468
 40
0.7501268152478643
 40
0.8374123867313518
 40
0.9184154974881052
 40
1.0
 40
1.0
 40
1.0
 40
1.0
 10
472.976399635789
 20
-101.6823406704534
 30
0.0
 10
472.6911745689785
 20
-101.8995859242598
 30
0.0
 10
472.115761380423
 20
-102.3378566049864
 30
0.0
 10
471.4300300228344
 20
-103.6590474861242
 30
0.0
 10
470.8487123325389
 20
-105.5433879292341
 30
0.0
 10
470.4341914118721
 20
-107.8042673946409
 30
0.0
 10
470.141419263073
 20
-110.2106293113576
 30
0.0
 10
469.9355314347013
 20
-112.5988510996614
 30
0.0
 10
469.7757967948427
 20
-115.3104132693586
 30
0.0
 10
469.6665026986335
 20
-118.2749784769606
 30
0.0
 10
469.6006784249446
 20
-121.4193997927355
 30
0.0
 10
469.59272005298
 20
-123.653340136277
 30
0.0
 10
469.5887266379561
 20
-124.7743044453349
 30
0.0
  0
LWPOLYLINE
  5
FC
330
1F
100
AcDbEntity
  8
0
  6
Continuous
 62
     7
370
    25
100
AcDbPolyline
 90
       94
 70
   128
 43
0.0
 10
407.3633298935
 20
-102.3230813702
 10
407.2625059542
 20
-98.9360068221
 10
406.9604941725
 20
-95.6807955609
 10
406.4586725591
 20
-92.572300369
 10
405.7593308108
 20
-89.6247045969
 10
404.8656598636
 20
-86.8514574482
 10
403.7817373332
 20
-84.2652126134
 10
402.5125089094
 20
-81.8777705345
 10
401.0637657903
 20
-79.7000245623
 10
399.4421182586
 20
-77.741911252
 10
397.65496552
 20
-76.0123650256
 10
395.7104619426
 20
-74.5192774059
 10
393.6174798501
 20
-73.2694610091
 10
391.3855690399
 20
-72.2686184609
 10
389.024913209
 20
-71.5213163763
 10
386.5462834885
 20
-71.0309645232
 10
383.9609892974
 20
-70.7998002647
 10
381.2808267401
 20
-70.8288783503
 10
378.5180247836
 20
-71.1180661033
 10
375.6851894597
 20
-71.6660440264
 10
372.795246346
 20
-72.470311822
 10
369.8613815902
 20
-73.5271998006
 10
366.8969817443
 20
-74.8318856247
 10
363.9155726849
 20
-76.3784163123
 10
360.9307578977
 20
-78.1597353984
 10
357.9561564079
 20
-80.1677151326
 10
355.0053406399
 20
-82.3931935641
 10
352.0917744893
 20
-84.826016345
 10
349.2287518901
 20
-87.4550830631
 10
346.4293361578
 20
-90.26839789
 10
343.7063003843
 20
-93.2531243153
 10
341.0720691573
 20
-96.3956437169
 10
338.5386618697
 20
-99.6816174996
 10
336.1176378779
 20
-103.0960525187
 10
333.820043759
 20
-106.6233694903
 10
331.6563629081
 20
-110.2474740762
 10
329.6364677046
 20
-113.9518303182
 10
327.7695744671
 20
-117.7195360886
 10
326.0642014011
 20
-121.53340021
 10
324.5281297329
 20
-125.3760208952
 10
323.1683682052
 20
-129.2298651473
 10
321.9911210979
 20
-133.077348759
 10
321.0017599196
 20
-136.900916545
 10
320.2047988984
 20
-140.6831224425
 10
319.6038743846
 20
-144.4067091134
 10
319.2017282591
 20
-148.0546866858
 10
319.0001954222
 20
-151.6104102747
 10
319.0001954222
 20
-155.057655929
 10
319.2017282591
 20
-158.3806946574
 10
319.6038743846
 20
-161.5643641963
 10
320.2047988984
 20
-164.5941381918
 10
321.0017599196
 20
-167.4561924802
 10
321.9911210979
 20
-170.1374681641
 10
323.1683682052
 20
-172.6257311975
 10
324.5281297329
 20
-174.909628207
 10
326.0642014011
 20
-176.9787382943
 10
327.7695744671
 20
-178.8236205847
 10
329.6364677046
 20
-180.4358573035
 10
331.6563629081
 20
-181.8080921842
 10
333.820043759
 20
-182.9340640338
 10
336.1176378779
 20
-183.8086353011
 10
338.5386618697
 20
-184.4278155179
 10
341.0720691573
 20
-184.7887795069
 10
343.7063003843
 20
-184.8898802722
 10
346.4293361578
 20
-184.7306565143
 10
349.2287518901
 20
-184.3118347346
 10
352.0917744893
 20
-183.6353259209
 10
355.0053406399
 20
-182.7042168276
 10
357.9561564079
 20
-181.5227558921
 10
360.9307578977
 20
-180.0963338495
 10
363.9155726849
 20
-178.4314591366
 10
366.8969817443
 20
-176.5357281947
 10
369.8613815902
 20
-174.4177908094
 10
372.795246346
 20
-172.0873106431
 10
375.6851894597
 20
-169.5549211424
 10
378.5180247836
 20
-166.8321770197
 10
381.2808267401
 20
-163.9315015319
 10
383.9609892974
 20
-160.8661297961
 10
386.5462834885
 20
-157.6500484003
 10
389.024913209
 20
-154.2979315864
 10
391.3855690399
 20
-150.8250742944
 10
393.6174798501
 20
-147.2473223758
 10
395.7104619426
 20
-143.5810002918
 10
397.65496552
 20
-139.8428366294
 10
399.4421182586
 20
-136.0498877718
 10
401.0637657903
 20
-132.2194600747
 10
402.5125089094
 20
-128.3690309013
 10
403.7817373332
 20
-124.5161688766
 10
404.8656598636
 20
-120.6784537265
 10
405.7593308108
 20
-116.8733960648
 10
406.4586725591
 20
-113.1183574971
 10
406.9604941725
 20
-109.430471403
 10
407.2625059542
 20
-105.8265647609
 10
407.3633298935
 20
-102.3230813702
  0
LWPOLYLINE
  5
FD
330
1F
100
AcDbEntity
  8
0
  6
Continuous
 62
     7
370
    25
100
AcDbPolyline
 90
      106
 70
   128
 43
0.0
 10
419.0305917831
 20
-95.5877144477
 10
418.9306070622
 20
-91.7876643376
 10
418.6310108188
 20
-88.1166573221
 10
418.1328755297
 20
-84.5878346538
 10
417.43798439
 20
-81.2138286018
 10
416.5488249296
 20
-78.0067172322
 10
415.4685801086
 20
-74.9779811713
 10
414.2011169231
 20
-72.1384625081
 10
412.7509725623
 20
-69.4983259825
 10
411.1233381667
 20
-67.0670225981
 10
409.324040245
 20
-64.8532557899
 10
407.3595198168
 20
-62.8649502686
 10
405.2368093554
 20
-61.1092236518
 10
402.9635076132
 20
-59.5923609853
 10
400.5477524206
 20
-58.3197922437
 10
397.9981915541
 20
-57.2960728928
 10
395.3239517799
 20
-56.5248675822
 10
392.5346061824
 20
-56.0089370267
 10
389.6401398949
 20
-55.7501281239
 10
386.6509143554
 20
-55.7493673424
 10
383.5776302156
 20
-56.0066574056
 10
380.4312890351
 20
-56.5210772819
 10
377.2231538987
 20
-57.2907854817
 10
373.9647090976
 20
-58.3130266493
 10
370.6676190185
 20
-59.5841414267
 10
367.3436863881
 20
-61.0995795528
 10
364.0048100227
 20
-62.8539161526
 10
360.6629422329
 20
-64.8408711562
 10
357.3300460383
 20
-67.0533317804
 10
354.0180523421
 20
-69.4833779905
 10
350.7388172222
 20
-72.1223108517
 10
347.5040794893
 20
-74.9606836692
 10
344.3254186649
 20
-77.988335805
 10
341.2142135298
 20
-81.1944290502
 10
338.1816013908
 20
-84.5674864232
 10
335.2384382125
 20
-88.0954332539
 10
332.3952597551
 20
-91.7656404083
 10
329.6622438596
 20
-95.5649694974
 10
327.0491740135
 20
-99.4798199091
 10
324.5654043288
 20
-103.4961774949
 10
322.2198260563
 20
-107.5996647371
 10
320.0208357575
 20
-111.7755922164
 10
317.9763052468
 20
-116.0090111961
 10
316.0935534129
 20
-120.2847671351
 10
314.3793200188
 20
-124.5875539367
 10
312.839741575
 20
-128.9019687411
 10
311.4803293728
 20
-133.2125670629
 10
310.3059497551
 20
-137.5039180789
 10
309.3208066962
 20
-141.7606598661
 10
308.5284267524
 20
-145.9675543939
 10
307.9316464384
 20
-150.1095420715
 10
307.5326020728
 20
-154.1717956582
 10
307.3327221309
 20
-158.1397733404
 10
307.3327221309
 20
-161.9992707877
 10
307.5326020728
 20
-165.7364720011
 10
307.9316464384
 20
-169.3379987701
 10
308.5284267524
 20
-172.7909585636
 10
309.3208066962
 20
-176.0829906817
 10
310.3059497551
 20
-179.2023105038
 10
311.4803293728
 20
-182.1377516745
 10
312.839741575
 20
-184.8788060764
 10
314.3793200188
 20
-187.415661446
 10
316.0935534129
 20
-189.7392364995
 10
317.9763052468
 20
-191.8412134413
 10
320.0208357575
 20
-193.7140677394
 10
322.2198260563
 20
-195.3510950616
 10
324.5654043288
 20
-196.7464352749
 10
327.0491740135
 20
-197.8950934234
 10
329.6622438596
 20
-198.7929576092
 10
332.3952597551
 20
-199.4368137115
 10
335.2384382125
 20
-199.8243568924
 10
338.1816013908
 20
-199.9541998481
 10
341.2142135298
 20
-199.8258777744
 10
344.3254186649
 20
-199.4398500311
 10
347.5040794893
 20
-198.7974984973
 10
350.7388172222
 20
-197.9011226247
 10
354.0180523421
 20
-196.7539312064
 10
357.3300460383
 20
-195.3600308898
 10
360.6629422329
 20
-193.7244114764
 10
364.0048100227
 20
-191.8529280592
 10
367.3436863881
 20
-189.752280063
 10
370.6676190185
 20
-187.4299872626
 10
373.9647090976
 20
-184.8943628633
 10
377.2231538987
 20
-182.1544837425
 10
380.4312890351
 20
-179.2201579564
 10
383.5776302156
 20
-176.1018896296
 10
386.6509143554
 20
-172.8108413536
 10
389.6401398949
 20
-169.3587942269
 10
392.5346061824
 20
-165.7581056824
 10
395.3239517799
 20
-162.0216652505
 10
397.9981915541
 20
-158.1628484183
 10
400.5477524206
 20
-154.1954687485
 10
402.9635076132
 20
-150.1337284306
 10
405.2368093554
 20
-145.9921674409
 10
407.3595198168
 20
-141.7856114928
 10
409.324040245
 20
-137.5291189648
 10
411.1233381667
 20
-133.2379269955
 10
412.7509725623
 20
-128.9273969384
 10
414.2011169231
 20
-124.6129593723
 10
415.4685801086
 20
-120.3100588641
 10
416.5488249296
 20
-116.0340986807
 10
417.43798439
 20
-111.8003856499
 10
418.1328755297
 20
-107.6240753656
 10
418.6310108188
 20
-103.5201179346
 10
418.9306070622
 20
-99.5032044594
 10
419.0305917831
 20
-95.5877144477
  0
LWPOLYLINE
  5
FE
330
1F
100
AcDbEntity
  8
0
  6
Continuous
 62
     7
370
    25
100
AcDbPolyline
 90
       12
 70
   128
 43
0.0
 10
608.5352091411
 20
-204.9864014319
 10
608.4352244202
 20
-201.1863513218
 10
608.1356281768
 20
-197.5153443064
 10
607.6374928877
 20
-193.9865216381
 10
606.942601748
 20
-190.6125155861
 10
606.0534422876
 20
-187.4054042165
 10
604.9731974666
 20
-184.3766681555
 10
603.7057342811
 20
-181.5371494924
 10
602.2555899203
 20
-178.8970129668
 10
600.6279555247
 20
-176.4657095823
 10
598.828657603
 20
-174.2519427741
 10
598.2912501661
 20
-173.6682549057
  0
LWPOLYLINE
  5
FF
330
1F
100
AcDbEntity
  8
0
  6
Continuous
 62
     7
370
    25
100
AcDbPolyline
 90
       41
 70
   128
 43
0.0
 10
513.1769834883
 20
-305.652381977
 10
514.0700216868
 20
-306.1451222591
 10
516.5537913715
 20
-307.2937804077
 10
519.1668612176
 20
-308.1916445935
 10
521.8998771131
 20
-308.8355006957
 10
524.7430555705
 20
-309.2230438767
 10
527.6862187488
 20
-309.3528868324
 10
530.7188308878
 20
-309.2245647587
 10
533.8300360229
 20
-308.8385370154
 10
537.0086968473
 20
-308.1961854815
 10
540.2434345802
 20
-307.2998096089
 10
543.5226697001
 20
-306.1526181906
 10
546.8346633963
 20
-304.7587178741
 10
550.1675595909
 20
-303.1230984607
 10
553.5094273807
 20
-301.2516150434
 10
556.8483037461
 20
-299.1509670473
 10
560.1722363765
 20
-296.8286742468
 10
563.4693264556
 20
-294.2930498476
 10
566.7277712567
 20
-291.5531707268
 10
569.9359063931
 20
-288.6188449406
 10
573.0822475736
 20
-285.5005766139
 10
576.1555317134
 20
-282.2095283378
 10
579.1447572529
 20
-278.7574812111
 10
582.0392235404
 20
-275.1567926666
 10
584.8285691379
 20
-271.4203522347
 10
587.5028089121
 20
-267.5615354025
 10
590.0523697786
 20
-263.5941557327
 10
592.4681249712
 20
-259.5324154149
 10
594.7414267134
 20
-255.3908544252
 10
596.8641371748
 20
-251.184298477
 10
598.828657603
 20
-246.927805949
 10
600.6279555247
 20
-242.6366139797
 10
602.2555899203
 20
-238.3260839226
 10
603.7057342811
 20
-234.0116463566
 10
604.9731974666
 20
-229.7087458483
 10
606.0534422876
 20
-225.432785665
 10
606.942601748
 20
-221.1990726342
 10
607.6374928877
 20
-217.0227623498
 10
608.1356281768
 20
-212.9188049188
 10
608.4352244202
 20
-208.9018914436
 10
608.5352091411
 20
-204.9864014319
  0
ARC
  5
100
330
1F
100
AcDbEntity
  8
0
  6
Continuous
 62
     7
370
    25
100
AcDbCircle
 10
365.3115585055
 20
-50.1923361007
 30
0.0
 40
3.501770879862284
100
AcDbArc
 50
114.1971139655
 51
174.4827450769
  0
LWPOLYLINE
  5
101
330
1F
100
AcDbEntity
  8
0
  6
Continuous
 62
     7
370
    25
100
AcDbPolyline
 90
       13
 70
   128
 43
0.0
 10
375.8260103189
 20
-49.8556565293
 10
375.7699205582
 20
-49.3451205005
 10
375.4497559024
 20
-48.5486391001
 10
374.8584143241
 20
-47.8056671469
 10
374.020105417
 20
-47.1466219998
 10
372.9691496464
 20
-46.5984850447
 10
371.7485732649
 20
-46.1836970729
 10
370.408346813
 20
-45.9192395527
 10
369.0033393191
 20
-45.8159394059
 10
367.5910719551
 20
-45.8780257529
 10
366.2293631128
 20
-46.1029567712
 10
364.9739613122
 20
-46.4815237585
 10
363.8762628506
 20
-46.9982281379
  0
ENDSEC
  0
SECTION
  2
OBJECTS
  0
DICTIONARY
  5
C
330
0
100
AcDbDictionary
281
     1
  3
ACAD_GROUP
350
D
  3
ACAD_LAYOUT
350
1A
  3
ACAD_MLINESTYLE
350
17
  3
ACAD_PLOTSETTINGS
350
19
  3
ACAD_PLOTSTYLENAME
350
E
  3
ACAD_SCALELIST
350
47
  3
DWGPROPS
350
102
  0
DICTIONARY
  5
D
102
{ACAD_REACTORS
330
C
102
}
330
C
100
AcDbDictionary
281
     1
  0
DICTIONARY
  5
1A
102
{ACAD_REACTORS
330
C
102
}
330
C
100
AcDbDictionary
281
     1
  3
Layout1
350
1E
  3
Layout2
350
26
  3
Model
350
22
  0
DICTIONARY
  5
17
102
{ACAD_REACTORS
330
C
102
}
330
C
100
AcDbDictionary
281
     1
  3
Standard
350
18
  0
DICTIONARY
  5
19
102
{ACAD_REACTORS
330
C
102
}
330
C
100
AcDbDictionary
281
     1
  0
ACDBDICTIONARYWDFLT
  5
E
102
{ACAD_REACTORS
330
C
102
}
330
C
100
AcDbDictionary
281
     1
  3
Normal
350
F
100
AcDbDictionaryWithDefault
340
F
  0
DICTIONARY
  5
47
102
{ACAD_REACTORS
330
C
102
}
330
C
100
AcDbDictionary
281
     1
  3
A0
350
48
  3
A1
350
49
  3
A2
350
4A
  3
A3
350
4B
  3
A4
350
4C
  3
A5
350
4D
  3
A6
350
4E
  3
A7
350
4F
  3
A8
350
50
  3
A9
350
51
  3
B0
350
52
  3
B1
350
53
  3
B2
350
54
  3
B3
350
55
  3
B4
350
56
  3
B5
350
57
  3
B6
350
58
  3
B7
350
59
  3
B8
350
5A
  3
B9
350
5B
  3
C0
350
5C
  3
C1
350
5D
  3
C2
350
5E
  3
C3
350
5F
  3
C4
350
60
  3
C5
350
61
  3
C6
350
62
  3
C7
350
63
  3
C8
350
64
  3
C9
350
65
  3
D0
350
66
  3
D1
350
67
  3
D2
350
68
  0
XRECORD
  5
102
102
{ACAD_REACTORS
330
C
102
}
330
C
100
AcDbXrecord
280
     1
  1
DWGPROPS COOKIE
  2

  3

  4

  6

  7

  8
b.kav
  9

300
=
301
=
302
=
303
=
304
=
305
=
306
=
307
=
308
=
309
=
 40
0.0
 41
2459741.482918796
 42
2459741.48291897
  1

 90
        0
  0
LAYOUT
  5
1E
102
{ACAD_REACTORS
330
1A
102
}
330
1A
100
AcDbPlotSettings
  1

  2
none_device
  4

  6

 40
0.0
 41
0.0
 42
0.0
 43
0.0
 44
0.0
 45
0.0
 46
0.0
 47
0.0
 48
0.0
 49
0.0
140
0.0
141
0.0
142
1.0
143
1.0
 70
   688
 72
     1
 73
     0
 74
     5
  7

 75
    16
147
1.0
148
0.0
149
0.0
100
AcDbLayout
  1
Layout1
 70
     1
 71
     1
 10
0.0
 20
0.0
 11
420.0
 21
297.0
 12
0.0
 22
0.0
 32
0.0
 14
1.0000000000E+20
 24
1.0000000000E+20
 34
1.0000000000E+20
 15
-1.0000000000E+20
 25
-1.0000000000E+20
 35
-1.0000000000E+20
146
0.0
 13
0.0
 23
0.0
 33
0.0
 16
1.0
 26
0.0
 36
0.0
 17
0.0
 27
1.0
 37
0.0
 76
     0
330
1B
  0
LAYOUT
  5
26
102
{ACAD_REACTORS
330
1A
102
}
330
1A
100
AcDbPlotSettings
  1

  2
none_device
  4

  6

 40
0.0
 41
0.0
 42
0.0
 43
0.0
 44
0.0
 45
0.0
 46
0.0
 47
0.0
 48
0.0
 49
0.0
140
0.0
141
0.0
142
1.0
143
1.0
 70
   688
 72
     1
 73
     0
 74
     5
  7

 75
    16
147
1.0
148
0.0
149
0.0
100
AcDbLayout
  1
Layout2
 70
     1
 71
     2
 10
0.0
 20
0.0
 11
0.0
 21
0.0
 12
0.0
 22
0.0
 32
0.0
 14
0.0
 24
0.0
 34
0.0
 15
0.0
 25
0.0
 35
0.0
146
0.0
 13
0.0
 23
0.0
 33
0.0
 16
1.0
 26
0.0
 36
0.0
 17
0.0
 27
1.0
 37
0.0
 76
     0
330
23
  0
LAYOUT
  5
22
102
{ACAD_REACTORS
330
1A
102
}
330
1A
100
AcDbPlotSettings
  1

  2
none_device
  4
Letter_(8.50_x_11.00_Inches)
  6

 40
6.35
 41
6.35
 42
6.35000508
 43
6.35000508
 44
215.9
 45
279.4
 46
0.0
 47
0.0
 48
0.0
 49
0.0
140
0.0
141
0.0
142
1.0
143
1.0
 70
  1712
 72
     1
 73
     0
 74
     0
  7

 75
     0
147
1.0
148
0.0
149
0.0
100
AcDbLayout
  1
Model
 70
     1
 71
     0
 10
0.0
 20
0.0
 11
279.4
 21
215.9
 12
0.0
 22
0.0
 32
0.0
 14
0.0
 24
0.0
 34
0.0
 15
279.4
 25
215.9
 35
0.0
146
0.0
 13
0.0
 23
0.0
 33
0.0
 16
1.0
 26
0.0
 36
0.0
 17
0.0
 27
1.0
 37
0.0
 76
     0
330
1F
331
29
  0
MLINESTYLE
  5
18
102
{ACAD_REACTORS
330
17
102
}
330
17
100
AcDbMlineStyle
  2
Standard
 70
     0
  3

 62
   256
 51
90.0
 52
90.0
 71
     2
 49
0.5
 62
   256
  6
BYLAYER
 49
-0.5
 62
   256
  6
BYLAYER
  0
ACDBPLACEHOLDER
  5
F
102
{ACAD_REACTORS
330
E
102
}
330
E
  0
SCALE
  5
48
102
{ACAD_REACTORS
330
47
102
}
330
47
100
AcDbScale
 70
     0
300
1:1
140
1.0
141
1.0
290
     1
  0
SCALE
  5
49
102
{ACAD_REACTORS
330
47
102
}
330
47
100
AcDbScale
 70
     0
300
1:2
140
1.0
141
2.0
290
     0
  0
SCALE
  5
4A
102
{ACAD_REACTORS
330
47
102
}
330
47
100
AcDbScale
 70
     0
300
1:4
140
1.0
141
4.0
290
     0
  0
SCALE
  5
4B
102
{ACAD_REACTORS
330
47
102
}
330
47
100
AcDbScale
 70
     0
300
1:5
140
1.0
141
5.0
290
     0
  0
SCALE
  5
4C
102
{ACAD_REACTORS
330
47
102
}
330
47
100
AcDbScale
 70
     0
300
1:8
140
1.0
141
8.0
290
     0
  0
SCALE
  5
4D
102
{ACAD_REACTORS
330
47
102
}
330
47
100
AcDbScale
 70
     0
300
1:10
140
1.0
141
10.0
290
     0
  0
SCALE
  5
4E
102
{ACAD_REACTORS
330
47
102
}
330
47
100
AcDbScale
 70
     0
300
1:16
140
1.0
141
16.0
290
     0
  0
SCALE
  5
4F
102
{ACAD_REACTORS
330
47
102
}
330
47
100
AcDbScale
 70
     0
300
1:20
140
1.0
141
20.0
290
     0
  0
SCALE
  5
50
102
{ACAD_REACTORS
330
47
102
}
330
47
100
AcDbScale
 70
     0
300
1:30
140
1.0
141
30.0
290
     0
  0
SCALE
  5
51
102
{ACAD_REACTORS
330
47
102
}
330
47
100
AcDbScale
 70
     0
300
1:40
140
1.0
141
40.0
290
     0
  0
SCALE
  5
52
102
{ACAD_REACTORS
330
47
102
}
330
47
100
AcDbScale
 70
     0
300
1:50
140
1.0
141
50.0
290
     0
  0
SCALE
  5
53
102
{ACAD_REACTORS
330
47
102
}
330
47
100
AcDbScale
 70
     0
300
1:100
140
1.0
141
100.0
290
     0
  0
SCALE
  5
54
102
{ACAD_REACTORS
330
47
102
}
330
47
100
AcDbScale
 70
     0
300
2:1
140
2.0
141
1.0
290
     0
  0
SCALE
  5
55
102
{ACAD_REACTORS
330
47
102
}
330
47
100
AcDbScale
 70
     0
300
4:1
140
4.0
141
1.0
290
     0
  0
SCALE
  5
56
102
{ACAD_REACTORS
330
47
102
}
330
47
100
AcDbScale
 70
     0
300
8:1
140
8.0
141
1.0
290
     0
  0
SCALE
  5
57
102
{ACAD_REACTORS
330
47
102
}
330
47
100
AcDbScale
 70
     0
300
10:1
140
10.0
141
1.0
290
     0
  0
SCALE
  5
58
102
{ACAD_REACTORS
330
47
102
}
330
47
100
AcDbScale
 70
     0
300
100:1
140
100.0
141
1.0
290
     0
  0
SCALE
  5
59
102
{ACAD_REACTORS
330
47
102
}
330
47
100
AcDbScale
 70
     0
300
1/128" = 1'-0"
140
0.0078125
141
12.0
290
     0
  0
SCALE
  5
5A
102
{ACAD_REACTORS
330
47
102
}
330
47
100
AcDbScale
 70
     0
300
1/64" = 1'-0"
140
0.015625
141
12.0
290
     0
  0
SCALE
  5
5B
102
{ACAD_REACTORS
330
47
102
}
330
47
100
AcDbScale
 70
     0
300
1/32" = 1'-0"
140
0.03125
141
12.0
290
     0
  0
SCALE
  5
5C
102
{ACAD_REACTORS
330
47
102
}
330
47
100
AcDbScale
 70
     0
300
1/16" = 1'-0"
140
0.0625
141
12.0
290
     0
  0
SCALE
  5
5D
102
{ACAD_REACTORS
330
47
102
}
330
47
100
AcDbScale
 70
     0
300
3/32" = 1'-0"
140
0.09375
141
12.0
290
     0
  0
SCALE
  5
5E
102
{ACAD_REACTORS
330
47
102
}
330
47
100
AcDbScale
 70
     0
300
1/8" = 1'-0"
140
0.125
141
12.0
290
     0
  0
SCALE
  5
5F
102
{ACAD_REACTORS
330
47
102
}
330
47
100
AcDbScale
 70
     0
300
3/16" = 1'-0"
140
0.1875
141
12.0
290
     0
  0
SCALE
  5
60
102
{ACAD_REACTORS
330
47
102
}
330
47
100
AcDbScale
 70
     0
300
1/4" = 1'-0"
140
0.25
141
12.0
290
     0
  0
SCALE
  5
61
102
{ACAD_REACTORS
330
47
102
}
330
47
100
AcDbScale
 70
     0
300
3/8" = 1'-0"
140
0.375
141
12.0
290
     0
  0
SCALE
  5
62
102
{ACAD_REACTORS
330
47
102
}
330
47
100
AcDbScale
 70
     0
300
1/2" = 1'-0"
140
0.5
141
12.0
290
     0
  0
SCALE
  5
63
102
{ACAD_REACTORS
330
47
102
}
330
47
100
AcDbScale
 70
     0
300
3/4" = 1'-0"
140
0.75
141
12.0
290
     0
  0
SCALE
  5
64
102
{ACAD_REACTORS
330
47
102
}
330
47
100
AcDbScale
 70
     0
300
1" = 1'-0"
140
1.0
141
12.0
290
     0
  0
SCALE
  5
65
102
{ACAD_REACTORS
330
47
102
}
330
47
100
AcDbScale
 70
     0
300
1-1/2" = 1'-0"
140
1.5
141
12.0
290
     0
  0
SCALE
  5
66
102
{ACAD_REACTORS
330
47
102
}
330
47
100
AcDbScale
 70
     0
300
3" = 1'-0"
140
3.0
141
12.0
290
     0
  0
SCALE
  5
67
102
{ACAD_REACTORS
330
47
102
}
330
47
100
AcDbScale
 70
     0
300
6" = 1'-0"
140
6.0
141
12.0
290
     0
  0
SCALE
  5
68
102
{ACAD_REACTORS
330
47
102
}
330
47
100
AcDbScale
 70
     0
300
1'-0" = 1'-0"
140
12.0
141
12.0
290
     0
  0
ENDSEC
  0
EOF
